Rebecca Intro

Pat McGee Band

tom: B (forma dos acordes no tom de A ) Capotraste na 2ª casa
**Capo on 2nd Fret**


Intro...(Live Intro before the regular Intro)

e---------------------0---5--0-------------------------0---5--0---|
B----0-/-2--2--3---------------3--2--0-/-2--2---3-----------------|
G-----------------------------------------------------------------|
D-----------------------------------------------------------------|
A----0-----------0--0---0--------------0----------0--0--0---------|
E-----------------------------------------------------------------|

Intro

e------------------0-----------------------0-----|
B------2--p--0---------------2--p--0-------------|
G------------------------1-----------------------|
D------------------------2-----------------------|
A------0-----------------0---0-------------------|
E------------------------------------------------|

e-----------------------------------------------|
B-----2-3-3-2-0-1-1-0---------------------------|
G-1----------------------------2-3-3-2-0--------|
D-2-----------------------------------------2---|
A-0---------------------------------------------|
E-----------------------------------------------|


Verses and Chorus

Chord Progression:  A E F#m D
Página 1 / 1

Letras e título
Acordes e artista

resetar configurações
OK