Cifra Club

Straight To The Telephone Pole

Paul Gilbert

Cifra: Principal (violão e guitarra)
tom: E
     E.  S   E  E  S  S E    E  E     E  S S S  S E  S  S S S S  S E    
E||--------------------------------|-----------------------------------|
B||--------------------------------|-----------------------------------|
G||--------------------------------|-----------------------------------|
D||------------------------2g4--2--|--L--2-2------2--4p-2---2----------|
A||-------------2--4p-2------------|---------2h-4---------4---4p-2-----|
E||--0---0-2g4----------4----------|-------------------------------3b--|


  E.  S   E  E  S  S E    E  E       E  S S S S S  S E  S S S S E    
--------------------------------|-----------------------------------|
--------------------------------|-----------------------------------|
--------------------------------|-------4-4-4-4---------------------|
------------------------2g4--2--|--4g6----------6s-4-2--4-2---------|
-------------2--4p-2------------|---------------------------4-2-----|
--0---0-2g4----------4----------|-------------------------------3b--|

  E.  S   E  E  S  S E    E  E     E  S S S  S E  S  S S S S  S E    
--------------------------------|-----------------------------------|
--------------------------------|-----------------------------------|
--------------------------------|-----------------------------------|
------------------------2g4--2--|--L--2-2------2--4p-2---2----------|
-------------2--4p-2------------|---------2h-4---------4---4p-2-----|
--0---0-2g4----------4----------|-------------------------------3b--|

  E.  S   E  E  S  S E    E  E     E   S E   S E   S E   S E  E   
--------------------------------|--------------------------------|
--------------------------------|--------------------------------|
--------------------------------|--------------------------------|
------------------------2g4--2--|--4b--x-4b--x-4b--x-4b--x-2--0--|
-------------2--4p-2------------|--------------------------------|
--0---0-2g4----------4----------|--------------------------------|

  E.  S   E  E  S  S E    E  E     E  S S S  S E  S  S S S S  S E    
--------------------------------|-----------------------------------|
--------------------------------|-----------------------------------|
--------------------------------|-----------------------------------|
------------------------2g4--2--|--L--2-2------2--4p-2---2----------|
-------------2--4p-2------------|---------2h-4---------4---4p-2-----|
--0---0-2g4----------4----------|-------------------------------3b--|

  E.  S   E  E  S  S E    E  E       E  S S S S S  S E  S S S S E    
--------------------------------|-----------------------------------|
--------------------------------|-----------------------------------|
--------------------------------|-------4-4-4-4---------------------|
------------------------2g4--2--|--4g6----------6s-4-2--4-2---------|
-------------2--4p-2------------|---------------------------4-2-----|
--0---0-2g4----------4----------|-------------------------------3b--|

  E.  S   E  E  S  S E    E  E     E  S S S  S E  S  S S S S  S E    
--------------------------------|-----------------------------------|
--------------------------------|-----------------------------------|
--------------------------------|-----------------------------------|
------------------------2g4--2--|--L--2-2------2--4p-2---2----------|
-------------2--4p-2------------|---------2h-4---------4---4p-2-----|
--0---0-2g4----------4----------|-------------------------------3b--|

  E.  S   E  E  S  S E    E  E     E   S E   S E   S E   S E  E   
--------------------------------|--------------------------------|
--------------------------------|--------------------------------|
--------------------------------|--------------------------------|
------------------------2g4--2--|--4b--x-4b--x-4b--x-4b--x-2--0--|
-------------2--4p-2------------|--------------------------------|
--0---0-2g4----------4----------|--------------------------------|

  E  S E  S E   S E  S E  E     E  S E  S E   S E  S E  E   
-----------------------------|-----------------------------|
------------------5----5--7--|------------------5----5--7--|
--5----5----5\--x-5--x-5--7--|--5----5----5\--x-5--x-5--7--|
--5--x-5--x-5\--x-5--x-5--7--|--5--x-5--x-5\--x-5--x-5--7--|
--3--x-3--x-3----------------|--3--x-3--x-3----------------|
-----------------------------|-----------------------------|

  Q    H        E   E      E   E    E    E    E.    S  E  E    
-------0--------L-------|-------------------------------------|
-------0--------L-------|-------------------------------------|
-------------------11b--|--L--11b--11b--11b--11br---9-----9~--|
------------------------|-----------------------------11------|
------------------------|-------------------------------------|
--0---------------------|-------------------------------------|


                                                         SH   
  E  E  H        E   E      E   E  E   E   E.    S  E    E    
--------0--------L-------|---------9-------------------------|
--------0--------L-------|-----12-----12---------------------|
--L-----------------11b--|--L-------------11br---9-----9~--|
-------------------------|-------------------------11--------|
-------------------------|-----------------------------------|
-----0-------------------|-----------------------------------|

  E  E  H        E   E      S S S  S  S  S S  S S  S S  S S  S E    
--------0--------L-------|----7-9p-7-12p-7-9-12-9p-7---------------|
--------0--------L-------|---------------------------9p-7-9p-7-----|
--L-----------------11b--|--L----------------------------------9\--|
-------------------------|-----------------------------------------|
-------------------------|-----------------------------------------|
-----0-------------------|-----------------------------------------|

  E  E  H        E    E     E   E   E   Q      Q.      
--------0--------L-------|----------------------------|
--------0--------L-------|-----10------12-----12------|
--L----------------------|------9------11b----11------|
--------------------/11--|--L------11-----------------|
-------------------------|----------------------------|
-----0-------------------|----------------------------|

  E  E  H        E   E      E   E    E    E    E.    S  E  E    
--------0--------L-------|-------------------------------------|
--------0--------L-------|-------------------------------------|
--------------------11b--|--L--11b--11b--11b--11br---9-----9~--|
-------------------------|-----------------------------11------|
-------------------------|-------------------------------------|
--0--0-------------------|-------------------------------------|


                                                          SH   
  E  E  H        E   E      E   E  E   E   E.    S  E     E    
--------0--------L-------|---------9--------------------------|
--------0--------L-------|-----12-----12----------------------|
--L-----------------11b--|--L-------------11br---9-----11b--|
-------------------------|-------------------------11---------|
-------------------------|------------------------------------|
-----0-------------------|------------------------------------|

  E  E  H        E   E      S S S  S  S  S  S  S  S   S  S  S  S   S  E    
--------0--------L-------|----7-9p-7-12-12-12-12-16p-12----12-------------|
--------0--------L-------|------------------------------14----14p-12------|
--L-----------------11b--|--L----------------------------------------13\--|
-------------------------|------------------------------------------------|
-------------------------|------------------------------------------------|
-----0-------------------|------------------------------------------------|

  E  E  H        E    E     E   E   E   Q      Q.      
--------0--------L-------|----------------------------|
--------0--------L-------|-----10------12-----12------|
--L----------------------|------9------11b----11------|
--------------------/11--|--L------11-----------------|
-------------------------|----------------------------|
-----0-------------------|----------------------------|

   Q      Q      Q      E   E      E    Q      E   H         
-------------------------------|----------------------------|
--10-----10-----10-----10--10--|--10---10-----10---L--------|
---9b-----9b-----9b-----9---7--|---9b---9b-----9b--L--------|
-------------------------------|----------------------------|
-------------------------------|----------------------------|
-------------------------------|----------------------------|

   E   S S S S  E   S S S S  E    S  S  
---------------------------------------|
-------9-9-9-9------9-9-9-9------10-10-|
--12b----------12b----------13b--------|
---------------------------------------|
---------------------------------------|
---------------------------------------|

   S  S  E    S  S  S  S  S   S  S  S  S   S  S  S  
---------------------------------------------------|
--10-10------11-11-11-11-----12-12-12-----13-13-13-|
--------14b--------------15b----------16b----------|
---------------------------------------------------|
---------------------------------------------------|
---------------------------------------------------|

   E    S  S  E    S  S  E    S  E    S  E    
-------10-10------12-12------14------15------|
--14b--------15b--------16b-----17b-----18b--|
---------------------------------------------|
---------------------------------------------|
---------------------------------------------|
---------------------------------------------|

   S  E    S  E    S  S  Q       Q       
--16------17------18-22-22b----(22)\----|
-----19b-----20b------------------------|
----------------------------------------|
----------------------------------------|
----------------------------------------|
----------------------------------------|

   |------5------|   |------5------|  |---6---|  |---6--|   |---6---|  |---6--| 
   S   S   S  S  S   S   S  S  S   S  S   S   S  S  S   S   S   S   S  S  S   S 
---------------------------14-16p-14--------------------------------------------
--17p-15p-14----14h-15h-17-----------17p-15p-14----14h-15h-17p-15p-14----14h-15h
-------------16---------------------------------16--------------------16--------
--------------------------------------------------------------------------------
--------------------------------------------------------------------------------
--------------------------------------------------------------------------------

   |------5-----|   |---6--|  |---6---|   |---6--|  |---6---|  |---6--|  |---6--
   S  S  S   S  S   S   S  S  S   S   S   S   S  S  S   S   S  S  S   S  S   S  
-----14-16p-14------------------------------------------------14-16p-14---------
--17-----------17p-15p-14----14h-15h-17p-15p-14----14h-15h-17-----------17p-15p-
--------------------------16--------------------16------------------------------
--------------------------------------------------------------------------------
--------------------------------------------------------------------------------
--------------------------------------------------------------------------------

   |---6---|  |---6---|  |---6--|   |---6--|   |---6--|   |---6---|  |------5---
   S   S   S  S   S   S  S  S   S   S  S   S   S  S   S   S   S   S  S  S   S   
--------------------------------------------------------------------------------
-------------------------------------------------14h-15h-17p-15p-14----14h-15h-1
--16p-14p-13--------------------------13h-14h-16--------------------16----------
-------------16p-14p-12----12h-14h-16-------------------------------------------
------------------------16------------------------------------------------------
--------------------------------------------------------------------------------

   E    S  E    S  E    S  E    S  E.     S      E  S S S E  S E  S S S E  S  
-------15------16------17------18-------------|------------------------------|
--19b-----20b-----21b-----22b-----22b---(22)\-|------------------------------|
----------------------------------------------|------------------------------|
----------------------------------------------|------------------------------|
----------------------------------------------|------------------------------|
----------------------------------------------|--0--0-0-3-0--0-0--0-0-3-0--0-|

  E  S S S E  S E  S S S  S S  S    E  S S S E  S E  S S S E  S  
---------------------------------|------------------------------|
---------------------------------|------------------------------|
---------------------------------|------------------------------|
---------------------------------|------------------------------|
----------------------------5h-7-|------------------------------|
--0--0-0-3-0--0-0--0-0-5h-7------|--0--0-0-3-0--0-0--0-0-3-0--0-|

  S  S S  S S  S S  S  S   S  S   S S  S S  S    E  S S S E  S E  S S S E  S  
-----------------------------10h-12-----------|------------------------------|
----------------------10h-12------------------|------------------------------|
-----------------7h-9--------------------7h-9-|------------------------------|
------------7h-9--------------------7h-9------|------------------------------|
-------5h-7-----------------------------------|------------------------------|
--5h-7----------------------------------------|--0--0-0-3-0--0-0--0-0-3-0--0-|

  E  S S S E  S E  S S S  S S  S    E  S S S E  S E  S S S E  S  
---------------------------------|------------------------------|
---------------------------------|------------------------------|
---------------------------------|------------------------------|
---------------------------------|------------------------------|
----------------------------5h-7-|------------------------------|
--0--0-0-3-0--0-0--0-0-5h-7------|--0--0-0-3-0--0-0--0-0-3-0--0-|

  E  E  H.              E  S S S E  S E  S S S E  S  
---------------------|------------------------------|
---------------------|------------------------------|
---------------------|------------------------------|
--2------------------|------------------------------|
--2------------------|------------------------------|
--0------------------|--0--0-0-3-0--0-0--0-0-3-0--0-|

  E  S S S E  S E  S S S  S S  S    E  S S S E  S E  S S S E  S  
---------------------------------|------------------------------|
---------------------------------|------------------------------|
---------------------------------|------------------------------|
---------------------------------|------------------------------|
----------------------------5h-7-|------------------------------|
--0--0-0-3-0--0-0--0-0-5h-7------|--0--0-0-3-0--0-0--0-0-3-0--0-|

  S  S S  S S  S S  S  S   S  S   S S  S S  S    E  S S S E  S E  S S S E  S  
-----------------------------10h-12-----------|------------------------------|
----------------------10h-12------------------|------------------------------|
-----------------7h-9--------------------7h-9-|------------------------------|
------------7h-9--------------------7h-9------|------------------------------|
-------5h-7-----------------------------------|------------------------------|
--5h-7----------------------------------------|--0--0-0-3-0--0-0--0-0-3-0--0-|

  E  S S S E  S E  S S S  S S  S    E  S S S E  S E  S S S E  S  
---------------------------------|------------------------------|
---------------------------------|------------------------------|
---------------------------------|------------------------------|
---------------------------------|------------------------------|
----------------------------5h-7-|------------------------------|
--0--0-0-3-0--0-0--0-0-5h-7------|--0--0-0-3-0--0-0--0-0-3-0--0-|

   S   S    S    S    S    S    S    S    S    S    S    S    S    S    S    S  
--22b-22pb-22pb-22pb-22pb-22pb-22pb-22pb-22pb-22pb-22pb-22pb-22pb-22pb-22pb-22pb
--------------------------------------------------------------------------------
--------------------------------------------------------------------------------
--------------------------------------------------------------------------------
--------------------------------------------------------------------------------
--------------------------------------------------------------------------------

   S     S  S  S  S  S  S  S  S  S  S  S  S  S  S  S  
--22pbr-22-22-21-21-21-19-19-19-17-17-17-15-15-15-14-|
-----------------------------------------------------|
-----------------------------------------------------|
-----------------------------------------------------|
-----------------------------------------------------|
-----------------------------------------------------|


                                             TP TP 
   S  S  S  S  S  S  S  S  S  S  S  S  S  S  S  S  
--14-14-------------------------------------------|
--------17-17-17-15-15-15-14-14-14----------------|
-----------------------------------16-16-16-15-15-|
--------------------------------------------------|
--------------------------------------------------|
--------------------------------------------------|


   TP TP                                                     
   S  S  E    E   E   H             H.               E   E   
-------------------------------|----------------------------|
-----------------15---L--------|--(15)---------------L--15--|
--14-14-12b--14--14b--L--------|--(14)brb------------L------|
-------------------------------|----------------------------|
-------------------------------|----------------------------|
-------------------------------|----------------------------|

   |-------3-------|                             
   Q       Q       Q       Q      S     S  S  S  
------------------------------------------------|
--15------15------15------15--------------------|
--14pb----14pb----14pb----14pb----Lpbr-14-12----|
---------------------------------------------14-|
------------------------------------------------|
------------------------------------------------|

   E   E   S  S   S  S  E    E   E      E    
--------------------------------------------|
--------------------------------------------|
--14--14--14-14p-12----12b--12------12g14~--|
--------------------14----------14----------|
--------------------------------------------|
--------------------------------------------|


   PM  PM            PM                  
   E   E   S  S   S  S  E   E   E   E    
----------------------------------------|
----------------------------------------|
--14--14--14-14p-12----12--12b-----14~--|
--------------------14------------------|
----------------------------------------|
----------------------------------------|


   PM  PM            PM          PM     PM PM 
   E   E   S  S   S  S  E   E    S   S  S  S  
---------------------------------------------|
---------------------------------------------|
--14--14--14-14p-12----12--12b---------------|
--------------------14----------14p-12----12-|
---------------------------------------14----|
---------------------------------------------|

   PM  PM  PM  PM  PM  PM  PM      
   E   E   E   E   E   E   E   E   
----------------------------------|
----------------------------------|
----------------------------------|
--14--14--14--14--14--14--14--14--|
----------------------------------|
----------------------------------|

   PM        PM        PM                         PM 
                                           |---3--|  
   S   S  S  S   S  S  S   S  E   E   E    S   S  S  
----------------------------------------------------|
---------12--------14--------12--14--15p--14p-12----|
-------------------------------------------------15-|
--12h-14----12h-14----12h-14------------------------|
----------------------------------------------------|
----------------------------------------------------|

      PM         PM PM PM      SH             
   |------5------|                            
   S  S   S   S  S  S  S  S    Q     S  Q     
--12------------------------15b----L-15----|
---------------------------------------------|
-----15p-14p-12----14----12------------------|
----------------14----14---------------------|
---------------------------------------------|
---------------------------------------------|

                           |---6---|   |--6--|              
   S  S  S  S  S  S  S  S  S   S   S   S  S  S  S  S  S  S  
--------12-------------------------------------------------|
--15-14----15-14-12-14-15-14h-15p-14p-12----12-------12----|
-----------------------------------------15----15-14----15-|
-----------------------------------------------------------|
-----------------------------------------------------------|
-----------------------------------------------------------|

   S  S   S  S  S  S   S  S E   E   Q      
------------------------------------------|
------------------------------------------|
--14-12b-------14-12b-------x--14--12~----|
---------14-12--------14-12---------------|
------------------------------------------|
------------------------------------------|

      PM PM PM PM PM PM PM PM PM PM PM PM PM PM PM         
      |--3--|  |--3--|  |--3--|  |--3--|  |--3--|          
  E   S  S  S  S  S  S  S  S  S  S  S  S  S  S  S  E   E   
--------------------------------------------------15--17--|
-----------------------------------------15-17-19---------|
--------------------------------14-16-17------------------|
-----------------------14-16-17---------------------------|
--------------14-15-17------------------------------------|
--0--14-15-17---------------------------------------------|


                                 SH   
   E   Q       E   E   E   E     E    
--19--17br----15---------------------|
------------------17--15--17--17~--|
-------------------------------------|
-------------------------------------|
-------------------------------------|
-------------------------------------|

      PM PM PM PM PM PM PM PM PM PM PM PM PM PM PM         
      |--3--|  |--3--|  |--3--|  |--3--|  |--3--|          
  E   S  S  S  S  S  S  S  S  S  S  S  S  S  S  S  E   E   
--------------------------------------------------15--17--|
--L--------------------------------------15-17-19---------|
--------------------------------14-16-17------------------|
-----------------------14-16-17---------------------------|
--------------14-15-17------------------------------------|
-----14-15-17---------------------------------------------|


                                 SH   
   E   Q       E   E   E   E     E    
--19--17br----15---------------------|
------------------17--15--17--17~--|
-------------------------------------|
-------------------------------------|
-------------------------------------|
-------------------------------------|

      PM PM PM PM PM PM PM PM PM PM PM PM PM PM PM         
      |--3--|  |--3--|  |--3--|  |--3--|  |--3--|          
  E   S  S  S  S  S  S  S  S  S  S  S  S  S  S  S  E   E   
--------------------------------------------------15--17--|
--L--------------------------------------15-17-19---------|
--------------------------------14-16-17------------------|
-----------------------14-16-17---------------------------|
--------------14-15-17------------------------------------|
-----14-15-17---------------------------------------------|


                                SH                                        
   E   Q      E   E   E   E     E       E   E    E   E   E   E   E   E    
--19--17br-------------------19b---|--L--17b--17--15-------------------|
-----------------17--15--17---(19)b--|--L---x-----------17--15--17--17~--|
-------------------------------------|------x----------------------------|
-------------------------------------|------x----------------------------|
-------------------------------------|-----(x)---------------------------|
-------------------------------------|-----------------------------------|

                                                         SH        SH    SH   
  E   E    E   E   E   E   E   E      E   E    E   E     E   E     E     E    
-----17b--17--15-------------------|-----17b--17--15-------------------------|
--L---x-----------17--15--17--17~--|--L---x-----------17--15--17--17~--|
------x----------------------------|------x----------------------------------|
-----------------------------------|------x----------------------------------|
-----------------------------------|-----(x)---------------------------------|
-----------------------------------|-----------------------------------------|


                     SH                  
  E   E    E   E     E.     S  E.     S  
-----17b--17--15------------------------|
--L---x-----------17p~---15-17p~---15-|
------x---------------------------------|
------x---------------------------------|
-----(x)--------------------------------|
----------------------------------------|

   E.     S  E.     S  S  S  S  S  E.     S  
-------------------------15-----------------|
--17p~---15-17p~---15-17----17-15-17p~---15-|
--------------------------------------------|
--------------------------------------------|
--------------------------------------------|
--------------------------------------------|

   S  S  S  S  E.    S  S  S  S  S  E.    S  
-----15-------------------15----------------|
--17----17-15-17~---15-17----17-15-17~---15-|
--------------------------------------------|
--------------------------------------------|
--------------------------------------------|
--------------------------------------------|

   E   E   S  S   S  S  E   E   Q      
--17--17--17-17p-15----15--15---------|
-------x------------17---------17~----|
-------x------------------------------|
--------------------------------------|
--------------------------------------|
--------------------------------------|

                 |---6--|   |---6--|                |---6--|   |---6--|  
   S   S  S   S  S  S   S   S   S  S  S   S  S   S  S  S   S   S   S  S  
--17p-15--------17-17h-18p-17p-15----17p-15--------17-17h-18p-17p-15----|
---------17p-15-------------------17--------17p-15-------------------17-|
------------------------------------------------------------------------|
------------------------------------------------------------------------|
------------------------------------------------------------------------|
------------------------------------------------------------------------|

                 |---6--|   |---6--|                |-------5------|  
   S   S  S   S  S  S   S   S   S  S  S   S  S   S  S  S   S   S   S  
--17p-15--------17-17h-18p-17p-15----17p-15--------17-17h-18p-17p-15-|
---------17p-15-------------------17--------17p-15-------------------|
---------------------------------------------------------------------|
---------------------------------------------------------------------|
---------------------------------------------------------------------|
---------------------------------------------------------------------|

   |-------5------|  |-------5------|  |-------5------|  |--6--|  |-6-|  
   S   S   S   S  S  S   S   S   S  S  S   S   S   S  S  S  S  S  S S S  
--17h-18p-17p-15-17-17h-18p-17p-15-17-17h-18p-17p-15-17-17-15-17\-9-9-9-|
------------------------------------------------------------------------|
------------------------------------------------------------------------|
------------------------------------------------------------------------|
------------------------------------------------------------------------|
------------------------------------------------------------------------|

  |---6--|  |--6--|  |----6---|    |----6----|                    
  S   S  S  S  S  S  S   S    S    S    S    S    Q       Q       
--9s-22-22-22-22-22-22b-22pb-22pb-22pb-22pb-22pb-22b-------------|
-----------------------------------------------------------------|
----------------------------------------------------------x------|
-----------------------------------------------------------------|
--------------------------------------------------------(20)\----|
--------------------------------------------------------(20)\----|

  E  S E  S E   S E  S E  E     E  S E  S E   S E  S E  E   
-----------------------------|-----------------------------|
------------------5----5--7--|------------------5----5--7--|
--5----5----5\--x-5--x-5--7--|--5----5----5\--x-5--x-5--7--|
--5--x-5--x-5\--x-5--x-5--7--|--5--x-5--x-5\--x-5--x-5--7--|
--3--x-3--x-3----------------|--3--x-3--x-3----------------|
-----------------------------|-----------------------------|

  E  S E  S E   S E  S E  E     E  S E  S E   S E  S E  E   
-----------------------------|-----------------------------|
------------------5----5--7--|------------------5----5--7--|
--5----5----5\--x-5--x-5--7--|--5----5----5\--x-5--x-5--7--|
--5--x-5--x-5\--x-5--x-5--7--|--5--x-5--x-5\--x-5--x-5--7--|
--3--x-3--x-3----------------|--3--x-3--x-3----------------|
-----------------------------|-----------------------------|

  Q    H        E   E      E   E    E    E    E.    S  E  E    
-------0--------L-------|-------------------------------------|
-------0--------L-------|-------------------------------------|
-------------------11b--|--L--11b--11b--11b--11br---9-----9~--|
------------------------|-----------------------------11------|
------------------------|-------------------------------------|
--0---------------------|-------------------------------------|


                                                          SH    
  E  E  H        E   E      E   E  E   E   E.    S  E     E     
--------0--------L-------|---------9---------------------------|
--------0--------L-------|-----12-----12-----------------------|
--L-----------------11b--|--L-------------11br---9-----11b~--|
-------------------------|-------------------------11----------|
-------------------------|-------------------------------------|
-----0-------------------|-------------------------------------|

  E  E  H        E   E      S S S  S  S  S S  S S  S S  S S  S E    
--------0--------L-------|----7-9p-7-12p-7-9-12-9p-7---------------|
--------0--------L-------|---------------------------9p-7-9p-7-----|
--L-----------------11b--|--L----------------------------------9\--|
-------------------------|-----------------------------------------|
-------------------------|-----------------------------------------|
-----0-------------------|-----------------------------------------|

  E  E  H        E    E     E   E   E   Q      Q.      
--------0--------L-------|----------------------------|
--------0--------L-------|-----10------12-----12------|
--L----------------------|------9------11b----11------|
--------------------/11--|--L------11-----------------|
-------------------------|----------------------------|
-----0-------------------|----------------------------|

  E  E  H        E   E      E   E    E    E    E.    S  E  E    
--------0--------L-------|-------------------------------------|
--------0--------L-------|-------------------------------------|
--------------------11b--|--L--11b--11b--11b--11br---9-----9~--|
-------------------------|-----------------------------11------|
-------------------------|-------------------------------------|
--0--0-------------------|-------------------------------------|

  E  E  H        E   E      E   E  E   E   E.    S  E   E    
--------0--------L-------|---------9------------------------|
--------0--------L-------|-----12-----12---------------12b--|
--L-----------------11b--|--L-------------11br---9----------|
-------------------------|-------------------------11-------|
-------------------------|----------------------------------|
-----0-------------------|----------------------------------|

  E  E  H        E   E    
--------0--------L--14b--|
--L-----0--------L-------|
-------------------------|
-------------------------|
-------------------------|
-----0-------------------|

                        |--6--|   |--6--|  |---3--|       
  S  S  S  S  S  S  E   S  S  S   S  S  S  S   S  S   E   
----14-12----14----12--17-16-----------------------------|
----------14----14-----------19p-17-15-------------------|
---------------------------------------18-16p-14---------|
-------------------------------------------------18s-18--|
---------------------------------------------------------|
---------------------------------------------------------|

  E  E  H        E    E     E   E   E   Q      Q.      
--------0--------L-------|----------------------------|
--------0--------L-------|-----10------12-----12------|
-------------------------|------9------11b----11------|
--------------------/11--|--L------11-----------------|
-------------------------|----------------------------|
-----0-------------------|----------------------------|

   Q      Q      Q       E   E      E    Q      E    Q     Q      
--------------------------------|--------------------------------|
--10-----10-----10------10--10--|--10---10-----10----L-----------|
---9b-----9b-----9b~-----9---7--|---9b---9b-----9b~--L-----------|
--------------------------------|--------------------------------|
--------------------------------|-------------------------16\----|
--------------------------------|-------------------------16\----|

  E.  S   E  E  S  S E    E  E     E  S S S  S E  S  S S S S  S E    
--------------------------------|-----------------------------------|
--------------------------------|-----------------------------------|
--------------------------------|-----------------------------------|
------------------------2g4--2--|--L--2-2------2--4p-2---2----------|
-------------2--4p-2------------|---------2h-4---------4---4p-2-----|
--0---0-2g4----------4----------|-------------------------------3b--|

  E.  S   E  E  S  S E    E  E       E  S S S S S  S E  S S S S E    
--------------------------------|-----------------------------------|
--------------------------------|-----------------------------------|
--------------------------------|-------4-4-4-4---------------------|
------------------------2g4--2--|--4g6----------6s-4-2--4-2---------|
-------------2--4p-2------------|---------------------------4-2-----|
--0---0-2g4----------4----------|-------------------------------3b--|

  E.  S   E  E  S  S E    E  E     E  S S S  S E  S  S S S S  S E    
--------------------------------|-----------------------------------|
--------------------------------|-----------------------------------|
--------------------------------|-----------------------------------|
------------------------2g4--2--|--L--2-2------2--4p-2---2----------|
-------------2--4p-2------------|---------2h-4---------4---4p-2-----|
--0---0-2g4----------4----------|-------------------------------3b--|

  E.  S   E  E  S  S E    E  E     E   S E   S E   S E   S E  E   
--------------------------------|--------------------------------|
--------------------------------|--------------------------------|
--------------------------------|--------------------------------|
------------------------2g4--2--|--4b--x-4b--x-4b--x-4b--x-2--0--|
-------------2--4p-2------------|--------------------------------|
--0---0-2g4----------4----------|--------------------------------|

  E.  S   E  E  S  S E    E  E     E  S S S  S E  S  S S S S  S E    
--------------------------------|-----------------------------------|
--------------------------------|-----------------------------------|
--------------------------------|-----------------------------------|
------------------------2g4--2--|--L--2-2------2--4p-2---2----------|
-------------2--4p-2------------|---------2h-4---------4---4p-2-----|
--0---0-2g4----------4----------|-------------------------------3b--|

  E.  S   E  E  S  S E    E  E       E  S S S S S  S E  S S S S E    
--------------------------------|-----------------------------------|
--------------------------------|-----------------------------------|
--------------------------------|-------4-4-4-4---------------------|
------------------------2g4--2--|--4g6----------6s-4-2--4-2---------|
-------------2--4p-2------------|---------------------------4-2-----|
--0---0-2g4----------4----------|-------------------------------3b--|

  E.  S   E  E  S  S E    E  E     E  S S S  S E  S  S S S S  S E    
--------------------------------|-----------------------------------|
--------------------------------|-----------------------------------|
--------------------------------|-----------------------------------|
------------------------2g4--2--|--L--2-2------2--4p-2---2----------|
-------------2--4p-2------------|---------2h-4---------4---4p-2-----|
--0---0-2g4----------4----------|-------------------------------3b--|

  E.  S   E  E  S  S E    E  E     E   S E   S E   S E   S E  E   
--------------------------------|--------------------------------|
--------------------------------|--------------------------------|
--------------------------------|--------------------------------|
------------------------2g4--2--|--4b--x-4b--x-4b--x-4b--x-2--0--|
-------------2--4p-2------------|--------------------------------|
--0---0-2g4----------4----------|--------------------------------|

  Q    Q    Q    Q       W                   W                 
-------3---------2----|-------------------|-------------------|
-------3---------3----|--5----------------|--L----------------|
--2----0---------2----|--5----------------|--L----------------|
--2----0----2----0----|--5----------------|--L----------------|
--0----2----2---------|--3----------------|--L----------------|
-------3----0---------|--3----------------|--L----------------|

  W                   W                  
-------------------|-------------------||
--L----------------|--L----------------||
--L----------------|--L----------------||
--L----------------|--L----------------||
--L----------------|--L----------------||
--L----------------|--L----------------||

Duration Legend
---------------
W - whole
H - half
Q - quarter
E - 8th
S - 16th
T - 32nd
X - 64th
. - note dotted
|-n-|  - n-tuplets

Tablature Legend
----------------
L - tied note
x - dead note
g - grace note
(n) - ghost note
> - accentuded note
NH - natural harmonic
AH - artificial harmonic
TH - tapped harmonic
SH - semi harmonic
PH - pitch harmonic
h - hammer on
p - pull off
b - bend
br - bendRelease
pb - preBend
pbr - preBendRelease
brb - bendReleaseBend
\n/ - tremolo bar dip
\n - tremolo bar dive
-/n - tremolo bar Release up
/n\ - tremolo bar inverted dip
/n - tremolo bar return
-\n - tremolo bar Release down
S - shift slide
s - legato slide
/ -  slide into from below or out of upwards
\ -  slide into from above or out of downwards
~ - vibrato
W - wide vibrato
tr - trill
TP - tremolo picking
T - tapping
S - slap
P - pop
< - fade in
^ - brush up
v - brush down
00:00 / 00:00
Outros vídeos desta música
Repetir
Outros vídeos desta música
Composição de Paul Gilbert
Colaboração e revisão:
  • zero one
252 exibições
    • ½ Tom
    • A
    • Bb
    • B
    • C
    • Db
    • D
    • Eb
    • E
    • F
    • F#
    • G
    • Ab
  • Adicionar à lista

    0 comentários

    Ver todos os comentários

    Conseguiu tocar?

    0 Tocaram 0 Ainda não

    Grave um vídeo tocando Straight To The Telephone Pole e nos envie!

    00:00 / 00:00

    Cifra Club Pro

    Aproveite o Cifra Club com benefícios exclusivos e sem anúncios
    Cifra Club Pro
    Aproveite o Cifra Club com benefícios exclusivos e sem anúncios
    OK