Let Me Roll It

Paul McCartney

Composição de: Paul McCartney
tom: A
[Intro] A  F#m  A  F#m 
        E  A  E  A 
        E  A  E

E|------------------------------------------------------------------------------------------|
B|------------------------------------------------------------------------------------------|
G|------------------------------------------------------------------------------------------|
D|------2-4--2---------2-4--4-2-------------2-------------2-------------2-------------------|
A|-0--4----------0--4----------------2-0-4----------2-0-4---------2-0-4---------------------|
E|------------------------------0--4-----------0--4----------0--4---------0-0-0-0-0-0-0-0-0-|

[Solo]

E|--2-1-2--0-2-0-------|
B|--2---2--0-2-0-------|
G|---------------2-0---|
D|---------------2-0---|
A|---------------------|
E|---------------------|

E                     F#m
You gave me something, I understand
E                         F#m
You gave me loving in the palm of my hand

A       F#m             A
I can't tell you how I feel
   F#m                E
My heart is, like a wheel

E       A
Let me roll it
E       A
Let me roll it to you
E       A
Let me roll it
E       A          E
Let me roll it to you

I want to tell you, and now's the time
I want to tell you that you're going to be mine
Página 1 / 1

Letras e título
Acordes e artista

resetar configurações
OK