Cifra Club

Silly Love Songs

Paul McCartney

Tab de baixo: Principal
Introdução

Parte 01

G|--------------------------------------------|
D|------------------------------------------5-|
A|-3-3----------------------------------------|
E|-----5-5--3-3-5--0--1-2-3-3-2-1--1-1--1-1---|

Primeira parte

You'd think that people would have had...

Parte 01 ( tocar 3x )

G|--------------------------------------------|
D|--------------------------------------------|
A|-3-3-------------------------------------3--|
E|-----5--3-3-5-3--0--1-2-3--3-2-1--3-4-5-----|

G|--------------------------------------------|
D|--------------------------------------------|
A|---3--5-3-----------------------------------|
E|-5------------------------------------------|

Parte 02

G|--------------------------------------------|
D|-------5h7-5---------------5----------------|
A|-------------5-7-8-9-10---------------------|
E|-0--1-------------------3-------------------|

Refrão 

I love you, i love you...

Parte 01 ( tocar 3x )

G|--------------------------------------------|
D|--------------------------------------------|
A|-3-3----------------------------------------|
E|-----5-5--3-3--5-3-0--1-2-3--3-2-1--3-4-5---|

G|--------------------------------------------|
D|--------------------------------------------|
A|-3---3--5-3-3-------------------------------|
E|---5----------------------------------------|

Parte 02

G|--------------------------------------------|
D|--------------------------------------------|
A|-3-3----------------------------------------|
E|-----5-5--3-3--5-3-0--1-2-3--3-2-1--3-4-5---|

G|--------------------------------------------|
D|--------------------------------------------|
A|-3---3--5-5-5-5--3--------------------------|
E|---5----------------------------------------|

Segunda parte

I can't explain the feeling's plain to me...         

Parte 01 ( tocar 2x )

G|--------------------------------------------|
D|--------------------------------------------|
A|-3-3-------------------------------------3--|
E|-----5--3-3-5-3--0--1-2-3--3-2-1--3-4-5-----|

G|--------------------------------------------|
D|--------------------------------------------|
A|---3--5-3-----------------------------------|
E|-5------------------------------------------|

Parte 02

G|--------------------------------------------|
D|-2/9----2---------------5-------------------|
A|----------5-7-8-9-10------------------------|
E|-----1---------------3----------------------|

Refrão 2

I love you, i love you...

Parte 01 

G|--------------------------------------------|
D|--------------------------------------------|
A|-3-3----------------------------------------|
E|-----5-5--3-3--5-3-0--1-2-3--3-2-1----------|

G|--------------------------------------------|
D|--------------------------------------------|
A|---------3-3---3-3-5-3-3--------------------|
E|-x-3-4-5-----5------------------------------|

Parte 02

G|--------------------------------------------|
D|--------------------------------------------|
A|-3-3----------------------------------------|
E|-----5-5--3-3--5-3-0--1-2-3--3-2-1--3-4-5---|

G|--------------------------------------------|
D|--------------------------------------------|
A|-3-3---3-3---3-3----------------------------|
E|-----5-----5-----5--------------------------|

Terceira parte

Love doesn't come in a minute...

Parte 01 

G|--------------------------------------------|
D|--------------------------------------------|
A|--------3---5--3-3--------------------------|
E|-0--3-5---5--------5-5--3-3-5-3--0----------|

G|--------------------------------------------|
D|--------------------------------------------|
A|-----3-----5-5-5---5-5-5-5---5-5-5-5-5------|
E|-3-5---5---------5---------5----------------|

G|--------------------------------------------|
D|--------------------5-5-5-5-----------------|
A|--------------------------------------------|
E|-3-3-3-3--3-3-3-3-----------3-3-3-3---------|

Solo de metais 01

Parte 01 

G|--------------------------------------------|
D|--------------------------------------------|
A|-3-3-------------------------------------3--|
E|-----5--3-3-5-3--0--1-2-3--3-2-1--3-4-5-----|

G|--------------------------------------------|
D|--------------------------------------------|
A|---3--5-3-3---------------------------------|
E|-5------------------------------------------|

Parte 02

G|--------------------------------------------|
D|--------------------------------------------|
A|-3-3-------------------------------------3--|
E|-----5--3-3-5-3--0--1-2-3--3-2-1--3-4-5-----|

G|--------------------------------------------|
D|--------------------------------------------|
A|---3--5-5-----------------------------------|
E|-5------------------------------------------|

Parte 03 ( Tocar 2x )

G|--------------------------------------------|
D|--------------------------------------------|
A|-3-3-------------------------------------3--|
E|-----5--3-3-5-3--0--1-2-3--3-2-1--3-4-5-----|

G|--------------------------------------------|
D|--------------------------------------------|
A|---3--5-3-3---------------------------------|
E|-5------------------------------------------|

Quarta parte

How can i tell you about my loved one?

Parte 01

G|--------------------------------------------|
D|--------------------------------------------|
A|-3/7-—8--8\-------3/7--8--------------------|
E|------------1--3---------1--1-3-------------|

G|--------------------------------------------|
D|----------------------5-5--------9-9--------|
A|-3/7--8\-----------3----------7-------------|
E|---------1--1-1-3---------3/---------7------|

G|--------------------------------------------|
D|----10-10-----------------------------------|
A|-8-----------8--8-10------------------------|
E|----------8---------------------------------|

Solo metais 02

Parte 01 

G|--------------------------------------------|
D|--------------------------------------------|
A|-3-3-------------------------------------3--|
E|-----5--3-3-5-3--0--1-2-3--3-2-1--3-4-5-----|

G|--------------------------------------------|
D|--------------------------------------------|
A|---3--5-3-3---------------------------------|
E|-5------------------------------------------|

Parte 02

G|--------------------------------------------|
D|--------------------------------------------|
A|-3-3----------------------------------------|
E|-----5--3-3-5-3--0--1-2-3--3-2-1--3-4-5-----|

G|--------------------------------------------|
D|--------------------------------------------|
A|-3-3---3-3----5--3--------------------------|
E|-----5-----5--------------------------------|

Parte 03 

G|--------------------------------------------|
D|--------------------------------------------|
A|-------------------------------------3------|
E|-5-5-3--5-3--0--1-2-3--3-2-1--3-4-5---------|

G|--------------------------------------------|
D|--------------------------------------------|
A|---3--5-3-3---------------------------------|
E|-5------------------------------------------|

Parte 04 

G|--------------------------------------------|
D|--------------------------------------------|
A|-3-3----------------------------------------|
E|-----5--3-3-5-3--0--1-2-3--3-2-1--3-4-5-----|

G|--------------------------------------------|
D|--------------------------------------------|
A|-3-5-5-3------------------------------------|
E|---------5-3--------------------------------|

Refrão 03

I love you, i love you...

Parte 01

G|--------------------------------------------|
D|--------------------------------------------|
A|-3/7--8\------3--3--3--7--8-----------------|
E|---------1------------------8\1--3----------|

Parte 02 ( tocar 2x )

G|--------------------------------------------|
D|----5-5--------9-9-------10-10-----10-10----|
A|-3----------7---------8----------8-------10\|
E|--------3/---------7-----------8------------|

Parte 03

G|--------------------------------------------|
D|----5-5--------9-9-------10-10--------------|
A|-3----------7---------8---------------------|
E|--------3/---------7-----------8------------|

G|--------------------------------------------|
D|--------------------------------------------|
A|--------------------------------------------|
E|-1-1-1-1—1—1/-3-----------------------------|

Introdução 02

Parte 01

G|--------------------------------------------|
D|--------------------------------------------|
A|-3-3----------------------------------------|
E|-----5-5-3-3-5-3-0--1-2-3--3-2-1--3-4-5-----|

G|--------------------------------------------|
D|-----------5\-------------------------------|
A|-3------------------------------------------|
E|----5-5\------------------------------------|

quinta parte

You'd think that people would have had...

Parte 01 

G|--------------------------------------------|
D|--------------------------------------------|
A|-3-3-------------------------------------3--|
E|-----5--3-3-5-3--0--1-2-3--3-2-1--3-4-5-----|

G|--------------------------------------------|
D|--------------------------------------------|
A|---3--5-5--3--------------------------------|
E|-5------------------------------------------|

Parte 02 

G|--------------------------------------------|
D|--------------------------------------------|
A|-3-3-------------------------------------3--|
E|-----5--3-3-5-3--0--1-2-3--3-2-1--3-4-5-----|

G|--------------------------------------------|
D|--------------------------------------------|
A|---3--5-3-----------------------------------|
E|-5------------------------------------------|

Parte 03 Final

G|--------------------------------------------|
D|--------------------------------------------|
A|-3-3-------------------------------------3--|
E|-----5--3-3-5-3--0--1-2-3--3-2-1--3-4-5-----|

G|--------------------------------------------|
D|--------------------------------------------|
A|---3--5-5-3/--------------------------------|
E|-5-----------0--0---------------------------|
00:00 / 00:00
Outros vídeos desta música
Repetir
Outros vídeos desta música
Composição de Paul McCartney
Colaboração e revisão:
  • Reginaldo Costa
2.696 exibições

0 comentários

Ver todos os comentários

Conseguiu tocar?

1 Tocaram 0 Ainda não

Grave um vídeo tocando Silly Love Songs e nos envie!

Entre para oCifra Club PRO

Tenha acesso a benefícios exclusivos no App e no Site

  • Chega de anúncios

  • Prioridade de compra em lançamentos

  • Mais recursos no app do Afinador

  • Atendimento Prioritário

  • Descontos nos produtos Cifra Club

  • Ajude a produzir mais conteúdo

00:00 / 00:00
Capítulos
  • Tocando a música
  • Dicas Iniciais / Equipamentos
  • Introdução 1
  • Primeira Parte - Parte 1 de 2
  • Primeira Parte - Parte 2 de 2
  • Refrão 1 - Parte 1 de 2
  • Refrão 1 - Parte 2 de 2
  • Segunda Parte - Parte 1 de 2
  • Segunda Parte - Parte 2 de 2
  • Refrão 2 - Parte 1 de 2
  • Refrão 2 - Parte 2 de 2
  • Terceira Parte
  • Solo de Metais - Parte 1 de 3
  • Solo de Metais - Parte 2 de 3
  • Solo de Metais - Parte 3 de 3
  • Quarta Parte
  • Solo de Metais 2 - Parte 1 de 4
  • Solo de Metais 2 - Parte 2 de 4
  • Solo de Metais 2 - Parte 3 de 4
  • Solo de Metais 2 - Parte 4 de 4
  • Refrão 3 - Parte 1 de 3
  • Refrão 3 - Parte 2 de 3
  • Refrão 3 - Parte 3 de 3
  • Introdução 2
  • Quinta Parte - Parte 1 de 3
  • Quinta Parte - Parte 2 de 3
  • Quinta Parte - Parte 3 de 3
  • Encerramento
  • Ficha Técnica

Cifra Club Pro

Aproveite o Cifra Club com benefícios exclusivos e sem anúncios
Cifra Club Pro
Aproveite o Cifra Club com benefícios exclusivos e sem anúncios
OK