Cifra Club

Navegar Em Mim

Paula Fernandes

Cifra: Principal
exibições 251.089
Tom: D (com acordes na forma de C) Capotraste na 2ª casa
Intro: Am F G

Riff:
E|---2~-----------------|---2~------------5----|
B|--------3~-3-3/5-5-5~-|--------3~-3-3/5---5~-|
G|-2----0---------------|-2----0---------------|
D|----------------------|----------------------|
A|----------------------|----------------------|
E|----------------------|----------------------|

Am
Assinando o fim
F
Eu lamento tanto
G
Palavras perdidas

Sensações vividas

Am
Eu anulo em mim
F
A promessa feita
G
Eu desafaço o sonho

De amor por toda vida

Dm            F
Foi engano achar
              C
Que você me amou

Afinal de amor
G
Você não sabe nada

Dm               F
Foi um erro aceitar
                C
O seu gesto de amor

Afinal a dor
    G
Me fez sua morada

Dm
Alguém pra me amar
F
Precisa me aceitar
c
Assim como eu sou
G
Imperfeita, amor

Dm
Quem quiser me amar
F
Precisa ter o dom
C
Bem mais que seduzir
G
Navegar em mim

Am     F   G
Navegar em mim

Solo 2x: Dm F C G

E|-------------|--------------------|
B|---7/10------|---7/10--8-7-5------|
G|--------6-7--|---------------6-7--|   (2x)
D|-------------|--------------------|
A|-------------|--------------------|
E|-------------|--------------------|

(Refrão)
Acordes para:

    0 comentários

      mostrar mais comentários

      Conseguiu tocar?

      49tocaram0ainda não

      Grave um vídeo tocando Navegar Em Mim e mande pra gente!

      00:00 / 00:00
      outros vídeos desta música
      repetirqualidadeautomática
      Outro vídeos desta música
        00:00 / 00:00
        automática
        OK