Cifra Club

Seio de Minas

Paula Fernandes

Cifra: Principal (violão e guitarra)
Tom: G
[Intro] G  D9/F#  Am7  G/B  C  D5(9)
        G  D9/F#  Am7  G/B  C  D

   G                        D9/F#
E|--------------------------------------------------|
B|-------3---3------3---------------3---3-------3---|
G|-0---0----------0---------2-----2----------2------|
D|---0-----0----0-----0--------0------0----0------0-|
A|--------------------------------------------------|
E|-3---------3--------------2-----------2-----------|

    Am7           G/B C         D5(9)
E|------------------------------------0-------------|
B|--------1---1---3---1-----1-------3---3-----------|
G|------0-----------------0-------2-----------------|
D|----2-----2---2---0---2-----2-0-------------------|
A|--0---------0---2---3-----------------------------|
E|--------------------------------------------------|

   G                        D9/F#
E|--------------------------------------------------|
B|-------3---3------3---------------3---3-------3---|
G|-0---0----------0---------2-----2----------2------|
D|---0-----0----0-----0--------0------0----0------0-|
A|--------------------------------------------------|
E|-3---------3--------------2-----------2-----------|

    Am7           G/B C         D
E|------------------------------2-------------------|
B|--------1---1---3---1-----1---3-------------------|
G|------0-----------------0-----2-------------------|
D|----2-----2---2---0---2-----2-0-------------------|
A|--0---------0---2---3-----------------------------|
E|--------------------------------------------------|

[Primeira Parte]

       G                                D9/F#
Eu nasci no celeiro da arte no berço mineiro
        Am7                                      C    D5(9)
Sou do campo, da serra onde impera o minério de ferro
       G                                 D9/F#
Eu carrego comigo no sangue um dom verdadeiro
       Am7                      G/B      C    D5(9)
De cantar melodias de Minas no Brasil inteiro

   G                        D9/F#
E|--------------------------------------------------|
B|-------3---3------3---------------3---3-------3---|
G|-0---0----------0---------2-----2----------2------|
D|---0-----0----0-----0--------0------0----0------0-|
A|--------------------------------------------------|
E|-3---------3--------------2-----------2-----------|

    Am7                  C         D5(9)
E|---------------------------------------0----------|
B|--------1---1-----1----1-----1-------3--3---------|
G|------0---------0----------0-------2--------------|
D|----2-----2---2-----2----2-----2-0----------------|
A|--0---------0----------3--------------------------|
E|--------------------------------------------------|

   G                        D9/F#
E|--------------------------------------------------|
B|-------3---3------3---------------3---3-------3---|
G|-0---0----------0---------2-----2----------2------|
D|---0-----0----0-----0--------0------0----0------0-|
A|--------------------------------------------------|
E|-3---------3--------------2-----------2-----------|

    Am7           G/B C         D5(9)
E|------------------------------------0-------------|
B|--------1---1---3---1-----1-------3---3-----------|
G|------0-----------------0-------2-----------------|
D|----2-----2---2---0---2-----2-0-------------------|
A|--0---------0---2---3-----------------------------|
E|--------------------------------------------------|

[Segunda Parte]

         Em                   D9/F#
Sou das Minas de ouro das montanhas Gerais
        Am7                       C      D5(9)
Eu sou filha dos montes e das estradas reais
       G                     D9/F#
Meu caminho primeiro vem brotar dessa fonte
        Am7         G/B  C
Sou do seio de Minas
         D          G
Nesse estado um diamante

   Em                     D9/F#
E|-------------------------------------------------|
B|--------0---0------0------------3---3-------3----|
G|------0----------0------2-----2----------2-------|
D|----2-----0----2-----0-----0------0----0------0--|
A|-------------------------------------------------|
E|-0----------0-----------2-----------2------------|

    Am7                  C         D5(9)
E|---------------------------------------0----------|
B|--------1---1-----1----1-----1-------3--3---------|
G|------0---------0----------0-------2--------------|
D|----2-----2---2-----2----2-----2-0----------------|
A|--0---------0----------3--------------------------|
E|--------------------------------------------------|

   G                        D9/F#
E|--------------------------------------------------|
B|-------3---3------3---------------3---3-------3---|
G|-0---0----------0---------2-----2----------2------|
D|---0-----0----0-----0--------0------0----0------0-|
A|--------------------------------------------------|
E|-3---------3--------------2-----------2-----------|

    Am7           G/B C         D
E|------------------------------2-------------------|
B|--------1---1---3---1-----1---3-------------------|
G|------0-----------------0-----2-------------------|
D|----2-----2---2---0---2-----2-0-------------------|
A|--0---------0---2---3-----------------------------|
E|--------------------------------------------------|

( G  D9/F#  Am7  G/B  C  D5(9) )

       G                                D9/F#
Eu nasci no celeiro da arte no berço mineiro
        Am7                                      C    D5(9)
Sou do campo, da serra onde impera o minério de ferro
       G                                 D9/F#
Eu carrego comigo no sangue um dom verdadeiro
       Am7                      G/B      C   D5(9)
Decantar melodias de Minas no Brasil inteiro

         Em                   D9/F#
Sou das Minas de ouro das montanhas Gerais
        Am7                       C      D5(9)
Eu sou filha dos montes e das estradas reais
       G                     D9/F#
Meu caminho primeiro vem brotar dessa fonte
        Am7          G/B  C
Sou do seio de Minas
         D          G
Nesse estado um diamante
exibições 655.368
Acordes para:

    0 comentários

    mostrar mais comentários

    Conseguiu tocar?

    116 tocaram 4 ainda não

    Grave um vídeo tocando Seio de Minas e mande pra gente!

    00:00 / 00:00
    outros vídeos desta música
    repetir qualidade Automático
    Outros vídeos desta música
    00:00 / 00:00
    Automático
    Capítulos
    • Início
    • Tocando a música
    • Acordes da Introdução e Primeira parte
    • Tocando Introdução e Primeira parte
    • Ensinando dedilhado da Introdução
    • Ensinando dedilhado da Primeira Parte
    • Acordes da Segunda Parte
    • Tocando Segunda Parte
    • Ensinando dedilhado Segunda Parte
    • Encerramento
    OK