Cifra Club

Pensando Em Você

Paulinho Moska

Cifra: Principal
exibições 582.467
Tom: G
Primeira Parte:

G5           Eb7M(11+)/G  G5
Eu estou pensando   em você
    Eb7M(11+)/G    Em9
Pensando em nunca mais
    A7(9)          Em9
Pensar em te esquecer
             A7(9)      Am7(11)
Pois quando penso em você
          D7(9-)       G5
É quando não me sinto só

            Eb7M(11+)/G   G5
Com minhas letras   e canções
          Eb7M(11+)/G  Em9
Com o perfume das  manhãs
        A7(9)      Em9
Com a chuva dos verões
         A7(9)       Am7(11)
Com o desenho das maçãs
         D7(9-)      G
E com você me sinto bem

Dedilhado Primeira Estrofe:

1ª parte:

   G5       Eb7M(11+)/G  G5     Eb7M(11+)/G
E|-----------------------------------------|
B|-----------------------------------------|
G|-----0----------2----------0---------2---|
D|---0---0------1---1------0---0-----1---1-|
A|-----------------------------------------|
E|-3----------3----------3---------3-------|

2ª parte:

   Em9      A7(9)  Em9      A7(9)
E|-----------------------------------------|
B|--------------0---------------0----------|
G|-----0------6--------0------6------------|
D|---4---4----5------4---4----5------------|
A|----------0---------------0--------------|
E|-0---------------0-----------------------|

3ª parte:

   Am7(11)  D7(9-)
E|---3-------------------------------------|
B|---3-3-----4-----------------------------|
G|---5-------3-----------------------------|
D|---5-------4-----------------------------|
A|-0---------5-----------------------------|
E|-----------------------------------------|

Ritmo Segunda Estrofe:

1ª parte:

   G5         Eb7M(11+)/G
E|-----------------------------------------|
B|-----3----------3------------------------|
G|-----0---0------2---2--------------------|
D|-----0---0------1---1--------------------|
A|-----------------------------------------|
E|-3-3-x-3----3-3-x-3----------------------|

   G5         Eb7M(11+)/G
E|-----------------------------------------|
B|-----3----------3------------------------|
G|-----0---0------2---2--------------------|
D|-----0---0------1---1--------------------|
A|-----------------------------------------|
E|-3-3-x-3----3-3-x-3----------------------|

2ª parte:

   Em9        A7(9)
E|-----------------------------------------|
B|----------------0------------------------|
G|-----0---0------6---6--------------------|
D|-----4---4------5---5--------------------|
A|-----2------0-0---0----------------------|
E|-0-0-x-0--------x------------------------|

   Em9        A7(9)
E|-----------------------------------------|
B|----------------0------------------------|
G|-----0---0------6---6--------------------|
D|-----4---4------5---5--------------------|
A|-----2------0-0---0----------------------|
E|-0-0-x-0--------x------------------------|

3ª parte:

   Am7(11)   D7(9-)
E|---3-x----------x------------------------|
B|---3-x-3------4-x-4----------------------|
G|---5-x-5------5-x-5----------------------|
D|---5-x-5------4-x-4----------------------|
A|-0---x---0--5---x---5--------------------|
E|-----x----------x------------------------|
Refrão:
             B7         Em  G6(9)/D
Eu estou pensando em você
             A7(9)/C#  C5    D4    G
Pensando em nunca mais    te esquecer
             B7         Em  G6(9)/D
Eu estou pensando em você
             A7(9)/C#  C5    D4    G5
Pensando em nunca mais    te esquecer

Ritmo Refrão:

1ª parte:

   G          B7
E|-----3-----------------------------------|
B|-----3----------0------------------------|
G|-----0---0------8---8--------------------|
D|-----0---0------7---7--------------------|
A|-----------------------------------------|
E|-3-3-x-3----7-7-x-7----------------------|

2ª parte:

   Em           G6(9)/D
E|-----2p0----------0----------------------|
B|-----0------------0----------------------|
G|-----0-----0------2---2------------------|
D|-----1-----1------5---5------------------|
A|--------------5-5---5--------------------|
E|-0-0-x---0--------x----------------------|

3ª parte:

   A7(9)/C#   C5  D4
E|-----0-----------------------------------|
B|-----0-----------------------------------|
G|-----2---2----0---0----------------------|
D|-----5---5-------------------------------|
A|-4-4---4----3---5------------------------|
E|-----x-----------------------------------|

Primeira Parte:

             Eb7M(11+)/G  G5
Eu estou pensando   em você
    Eb7M(11+)/G    Em9
Pensando em nunca mais
    A7(9)          Em9
Pensar em te esquecer
             A7(9)      Am7(11)
Pois quando penso em você
          D7(9-)       G5
É quando não me sinto só

            Eb7M(11+)/G   G5
Com minhas letras   e canções
          Eb7M(11+)/G  Em9
Com o perfume das  manhãs
        A7(9)      Em9
Com a chuva dos verões
         A7(9)       Am7(11)
Com o desenho das maçãs
         D7(9-)      G
E com você me sinto bem

Refrão:
             B7         Em  G6(9)/D
Eu estou pensando em você
             A7(9)/C#  C5    D4    G
Pensando em nunca mais    te esquecer
             B7         Em  G6(9)/D
Eu estou pensando em você
             A7(9)/C#  C5    D4    G5
Pensando em nunca mais    te esquecer

Base Vocalize:

G5  Eb7M(11+)/G  G5  Eb7M(11+)/G

Em9  A7(9)  Em9  A7(9)  Am7(11)  Eb/Bb  F/C

Variação Vocalize:

   Am7(11)   Eb/Bb    F/C
E|---3-x-----------------------------------|
B|---3-x--------8-8-8----10-10-10----------|
G|---5-x-5------8-8-8----10-10-10----------|
D|---5-x-5------8-8-8----10-10-10----------|
A|-0---x---0-------------------------------|
E|-----x------6--------8-------------------|

Refrão:

G              B7         Em  G6(9)/D
  Eu estou pensando em você
             A7(9)/C#  C5    D4    G
Pensando em nunca mais    te esquecer
             B7         Em  G6(9)/D
Eu estou pensando em você
             A7(9)/C#  C5    D4    G
Pensando em nunca mais    te esquecer
             B7         Em  G6(9)/D
Eu estou pensando em você
             A7(9)/C#  C5    D4    G5
Pensando em nunca mais    te esquecer

Final:

Eb7M(11+)/G                G5
            Pensando em você
Eb7M(11+)/G                G5
            Pensando em você
Eb7M(11+)/G                G5
            Pensando em você
          Eb7M(11+)/G  G
Estou pensando em   você

Final:

1ª parte 3x:

   G5         Eb7M(11+)/G
E|-----------------------------------------|
B|-----3----------3------------------------|
G|-----0---0------2---2--------------------|
D|-----0---0------1---1--------------------|
A|-----------------------------------------|
E|-3-3-x-3----3-3-x-3----------------------|

2ª parte:

   G5        Eb7M(11+)/G   G
E|-------------------------3---------------|
B|-----3-------------------3---------------|
G|-----0------2-2-2--------0---------------|
D|-----0------1-1-1--------0---------------|
A|-------------------------2---------------|
E|-3-3-x-3----3-3-3--------3---------------|
Acordes para:
    Colaboração e revisão:

    0 comentários

      mostrar mais comentários

      Conseguiu tocar?

      21tocaram1ainda não

      Grave um vídeo tocando Pensando Em Você e mande pra gente!

      00:00 / 00:00
      outros vídeos desta música
      repetirqualidadeautomática
      Outro vídeos desta música
        00:00 / 00:00
        automática
        Capítulos
        • Início
        • Tocando a música
        • Acordes da Primeira Parte
        • Tocando Primeira Estrofe (Primeira Parte)
        • Ensinando Primeira Estrofe
        • Tocando Segunda Estrofe (Primeira Parte)
        • Ensinando Segunda Estrofe
        • Acordes do Refrão
        • Tocando Refrão
        • Ensinando Refrão
        • Acordes da Repetição
        • Tocando Vocalize
        • Ensinando Vocalize
        • Tocando Final
        • Ensinando Final
        • Encerramento
        OK