Cifra Club

Bachianinha N° 1

Paulinho Nogueira

Cifra: Principal (violão e guitarra)
tom: G
E|-----0-----0--|-----0-----0--|-----0--0--0--|-----0--------|-----0--0--0--|
B|--5-----3-----|--1-----0-----|--0-----------|--3-----1--0--|--1-----------|
G|--5-----4-----|--2-----2-----|--1-----------|--4-----2-----|--2-----------|
D|--------------|--------------|--------------|--------------|--------------|
A|--------------|--------------|--------------|--------------|--------------|
E|--------------|--------------|--------------|--------------|--------------|

--0--0--0--0--|-----0-----0--|-----0-----0--|-----0--0--0--|-----0--------|
--------------|--5-----3-----|--1-----0-----|--0-----------|--3-----1--0--|
--------------|--5-----4-----|--2-----2-----|--1-----------|--4-----2-----|
--------------|--------------|--------------|--------------|--------------|
--------------|--------------|--------------|--------------|--------------|
--------------|--------------|--------------|--------------|--------------|

-----0--0--0--|-----0--0--0--|-----0--0--0--|-----0--0--0--|-----0--0--0--|
--1-----------|--1-----------|--0-----------|--0-----------|--0-----------|
--2-----------|--2-----------|--2-----------|--2-----------|--1-----------|
--------------|--------------|--------------|--------------|--------------|
--------------|--------------|--------------|--------------|--------------|
--------------|--------------|--------------|--------------|--------------|

--0--0--0--0--|--8-----------|--------------|--------5-----|--7-----8-----|
--------------|--------5-----|--------5--8--|--6--------6--|-----5-----5--|
--------------|-----5-----5--|-----5--------|-----5--------|--------------|
--------------|--------------|--------------|--------------|--------------|
--------------|--0-----------|--0-----------|--0-----------|--0-----------|
--------------|--------------|--------------|--------------|--------------|

--7-----8-----|--10-------------|--12-------------|--------8--12--|
--------------|----------8------|-----------------|-----8---------|
-----7-----7--|------10-----10--|----------9------|--9------------|
--5-----------|--9--------------|------10-----10--|---------------|
--------------|-----------------|-----------------|---------------|
--------------|-----------------|--8--------------|--8------------|

--10------------|-----7--10--7--|--8-----------|-----5--7--8--|--7-----------|
----------------|--9------------|--------5-----|--------------|--------6-----|
---------7--10--|---------------|-----5-----5--|--------------|-----7-----7--|
------9---------|---------------|--------------|--7-----------|--0-----------|
----------------|--7------------|--0-----------|--0-----------|--------------|
--7-------------|---------------|--------------|--------------|--------------|

--------5-----|--5-----4-----|--4-----------|--7-----------|--------5-----|
--------------|--------------|--------3-----|--------6-----|--------------|
-----5-----5--|-----4-----4--|-----4-----4--|-----7-----7--|-----5-----5--|
--------------|--2-----------|--2-----------|--0-----------|--------------|
--6-----------|--------------|--------------|--------------|--6-----------|
--------------|--------------|--------------|--------------|--------------|

--5-----4-----|--------------|--------3-----|--3-----5-----|--3-----1--0--|
--------------|--------3-----|--------------|--------------|--------------|
-----4-----4--|-----4-----4--|-----2-----2--|-----2-----2--|-----2--------|
--2-----------|--0-----------|--------------|--2-----------|--0-----------|
--------------|--------------|--4-----------|--------------|--------------|
--------------|--------------|--------------|--------------|--------------|

--1-----------|--------5-----|--5-----7-----|--5-----4-----|--5-----7-----|
--------3-----|--------------|--------------|--------------|--------------|
-----2-----2--|-----4-----4--|-----4-----4--|-----4-----4--|-----5-----7--|
--0-----------|--------------|--4-----------|--2-----------|--3-----6-----|
--------------|--6-----------|--------------|--------------|--------------|
--------------|--------------|--------------|--------------|--------------|

--8-----7-----|--5-----7-----|--5-----------|--1-----0-----|--------------|
--------------|--------------|--------8-----|-----------3--|--1-----------|
-----5-----5--|-----5-----5--|-----7-----7--|-----2--------|--------2-----|
--7-----------|--------------|--0-----------|--------------|-----2-----2--|
--------------|--3-----------|--------------|--2-----------|--------------|
--------------|--------------|--------------|--------------|--0-----------|

--------------||------------0--|--3-----------|--0------------|--0-----------|
--0-----------||---------1-----|--------3-----|--------1------|--------0-----|
--------1-----||*-----2--------|-----0-----0--|-----0---------|--------------|
-----2-----2--||*--------------|--------------|---------------|-----2-----2--|
--------------||---0-----------|--2-----------|--3--------2-0-|--------------|
--0-----------||---------------|--------------|---------------|--4-----------|

--------------|--------------|--------------|---------------||-----0--0--0--|
--1-----------|--3-----------|--0-----1--3--|--1-----0------||--------------|
--------2-----|--------2-----|--------------|--------------*||--2-----------|
-----2-----2--|-----3-----3--|-----3--------|-----0-----0--*||--------------|
--0-----------|--2-----------|--------------|---------------||--0-----------|
--------------|--------------|--1-----------|--0------------||--------------|

|------0--0--0--|-----0--0--0--|-----0--0--0--|-----0--0--0--|-----0--0--0--|
|---1-----------|--1-----------|--1-----------|--1-----------|--0-----------|
|*--4-----------|--2-----------|--4-----------|--2-----------|--2-----------|
|*--------------|--------------|--------------|--------------|--------------|
|---------------|--------------|--------------|--------------|--------------|
|---------------|--------------|--------------|--------------|--------------|

-----0-----0--|-----0--0--0--|-----0--0--0---||-----0--0--0--|-----0--0--0--|
--0-----0-----|--0-----------|--0------------||--------------|--------------|
--1-----------|--1-----------|--1-----------*||--2-----------|--4-----------|
--------4-----|--------------|--------------*||--3-----------|--3-----------|
--------------|--------------|---------------||--------------|--------------|
--------------|--------------|---------------||--------------|--------------|

-----0--0--0--|-----0-----0--|-----0--0--0--|-----0--0--0--|-----0--0--0--|
--------------|--------------|--------------|--------------|--------------|
--5-----------|--4-----2-----|--2-----------|--1-----------|--2-----------|
--3-----------|--3-----3-----|--2-----------|--2-----------|--3-----------|
--------------|--------------|--------------|--------------|--------------|
--------------|--------------|--------------|--------------|--------------|

-----0-----0--|-----0--0--0--|-----0--0--0--|-----0--0--0--|-----0--0--0--|
--------------|--------------|--------------|--------------|--------------|
--4-----2-----|--2-----------|--1-----------|--1-----------|--1-----------|
--3-----3-----|--2-----------|--2-----------|--2-----------|--2-----------|
--------------|--------------|--------------|--------------|--------------|
--------------|--------------|--------------|--------------|--------------|

-----0--0--0--|-----0--0--0--|-----0--0--0--|-----0--0--0--|-----0--0--0--|
--------------|--------------|--------------|--------------|--------------|
--1-----------|--1-----------|--1-----------|--1-----------|--4-----------|
--0-----------|--0-----------|--0-----------|--0-----------|--------------|
--------------|--------------|--------------|--------------|--3-----------|
--------------|--------------|--------------|--------------|--------------|

-----0--0--0--|-----0--0--0--|-----0--0--0--|-----0--0--0--|--0----0--0--|
--------------|--------------|--------------|--------------|-------------|
--2-----------|--4-----------|--2-----------|--2-----------|-------------|
--------------|--------------|--------------|--------------|-------------|
--3-----------|--3-----------|--3-----------|--2-----------|-------------|
--------------|--------------|--------------|--------------|-------------|

-----0--0--0--|--0----0--0--|----------|--------------|--------------|
--------------|-------------|----------|--------1-----|--------3-----|
--1-----------|-------------|----------|-----2-----2--|-----1-----1--|
--------------|-------------|----------|--2-----------|--2-----------|
--------------|-------------|----------|--0-----------|--0-----------|
--0-----------|-------------|----------|--------------|--------------|

--------------|--------------|-------------|------------|-----------||
--------1-----|--------3-----|--1----0-----|------------|-----------||
-----2-----2--|-----1-----1--|--2-------2--|--2----1----|--2--------||
--2-----------|--2-----------|--2----------|--2---------|--2--------||
--0-----------|--0-----------|--0----------|--2---------|--4--------||
--------------|--------------|-------------|--0---------|--5--------||

00:00 / 00:00
Outros vídeos desta música
Repetir
Outros vídeos desta música
Composição de Paulinho Nogueira
Colaboração e revisão:
  • mathias daltro
55.014 exibições
    • ½ Tom
    • A
    • Bb
    • B
    • C
    • Db
    • D
    • Eb
    • E
    • F
    • F#
    • G
    • Ab
  • Adicionar à lista

    0 comentários

    Ver todos os comentários

    Conseguiu tocar?

    21 Tocaram 3 Ainda não

    Grave um vídeo tocando Bachianinha N° 1 e nos envie!

    Entre para oCifra Club PRO

    Tenha acesso a benefícios exclusivos no App e no Site

    • Chega de anúncios

    • Prioridade de compra em lançamentos

    • Mais recursos no app do Afinador

    • Atendimento Prioritário

    • Descontos nos produtos Cifra Club

    • Ajude a produzir mais conteúdo

    00:00 / 00:00

    Cifra Club Pro

    Aproveite o Cifra Club com benefícios exclusivos e sem anúncios
    Cifra Club Pro
    Aproveite o Cifra Club com benefícios exclusivos e sem anúncios
    OK