Cifra Club

Ele Continua Sendo Bom (part. Marcela Taís)

Paulo César Baruk

Cifra: Principal (violão e guitarra)
tom: C
[Intro] F  Bb  Dm7  Bb
    
E|------------------------------------------|
B|------------------------------------------|
G|---10-------------------------------------|
D|---10h12p10-------------------------------|
A|-------------10h12p10/8\5-----------------|
E|------------------------------------------|

E|------------------------------------------|
B|------------------------------------------|
G|------------------------------------------|
D|------------------------------------------|
A|-/8~-10~-12~-3/5~-------------------------|
E|------------------------------------------|

E|------------------------------------------|
B|------------------------------------------|
G|---------------5/7~~----------------------|
D|------------------------------------------|
A|-8~-10~-10/12-----------------------------|
E|------------------------------------------|

[Primeira Parte]

                  F                              Bb
Um dia a gente aprende a confiar em um Deus que faz milagres
                 Dm7                    Bb
Que ouve a nossa oração, que se faz presente aqui
                  F                          Bb
Um dia a gente aprende a dar um passo só de cada vez
             Dm7              Bb
Mas sem duvidar, mas sem duvidar

[Refrão]

              F                           Bb
Que Ele continua sendo bom, que Ele continua sendo Deus
              F                           Bb
Que Ele continua sendo bom, que Ele continua sendo Deus

[Segunda Parte]

               F                       Bb
Então chega o dia de viver tudo que se aprendeu
          F                    Bb
E a enxergar até o que não se pode ver
             F                          Bb
Chega o dia de entender, até ouvir um "não" de Deus
             Dm7              Bb
Mas sem duvidar, mas sem duvidar

[Refrão]

              F                           Bb
Que Ele continua sendo bom, que Ele continua sendo Deus
              F                           Bb
Que Ele continua sendo bom, que Ele continua sendo Deus
              F                           Bb
Que Ele continua sendo bom, que Ele continua sendo Deus
              F                           Bb
Que Ele continua sendo bom, que Ele continua sendo Deus

[Solo] C  D  E  C  Bb  F  G
       C  D  E  C  Bb

E|------------------------------------------|
B|------------------------------------------|
G|----12b14r12p10-----10h12~----------------|
D|--x------------12-------------------------|
A|x-----------------------------------------|
E|------------------------------------------|

E|------------------------------------------|
B|------------------------------------------|
G|-------10---------------------------------|
D|-10/12----10h12h10------------------------|
A|---------------------10h12h10\8\5/10~~----|
E|------------------------------------------|

E|------------------------------------------|
B|-10h13-13--10-----------------------------|
G|--------------12b14r12p10----10h12p10~~---|
D|--------------------------12--------------|
A|------------------------------------------|
E|------------------------------------------|

E|-----------10--13--10h13/18-17------------|
B|-10h13-13----------------------18--15--18~|
G|------------------------------------------|
D|------------------------------------------|
A|------------------------------------------|
E|------------------------------------------|

[Refrão]

              F                           Bb
Que Ele continua sendo bom, que Ele continua sendo Deus
              F                           Bb
Que Ele continua sendo bom, que Ele continua sendo Deus
              F                           Bb
Que Ele continua sendo bom, que Ele continua sendo Deus
              F                           Bb
Que Ele continua sendo bom, que Ele continua
00:00 / 00:00
Outros vídeos desta música
Repetir
Outros vídeos desta música
Composição de Daniela Magalhães
335.954 exibições
    • ½ Tom
    • A
    • Bb
    • B
    • C
    • Db
    • D
    • Eb
    • E
    • F
    • F#
    • G
    • Ab
  • Adicionar à lista

    0 comentários

    Ver todos os comentários

    Conseguiu tocar?

    42 Tocaram 10 Ainda não

    Grave um vídeo tocando Ele Continua Sendo Bom (part. Marcela Taís) e nos envie!

    Entre para oCifra Club PRO

    Tenha acesso a benefícios exclusivos no App e no Site

    • Chega de anúncios

    • Prioridade de compra em lançamentos

    • Mais recursos no app do Afinador

    • Atendimento Prioritário

    • Descontos nos produtos Cifra Club

    • Ajude a produzir mais conteúdo

    00:00 / 00:00

    Cifra Club Pro

    Aproveite o Cifra Club com benefícios exclusivos e sem anúncios
    Cifra Club Pro
    Aproveite o Cifra Club com benefícios exclusivos e sem anúncios
    OK