Cifra Club

Filho de Deus (Bless The Lord Son Of Man)

Paulo César Baruk

Cifra: Principal (violão e guitarra)
tom: A
[Intro] F#m  E/G#  A  D  A/C#  Bm
        F#m  E/G#  A  E

[Tab - Riff]

E|----------------------------------------------------------------------------------------------------|
B|----------------------------------------------------------------------------------------------------|
G|----------------------------------------------------------------------------------------------------|
D|---------------------------------------------------------4-x-4--------2-x-2-------------------------|
A|--------4-x-4--------2-x-2-0-x-0-4-x-4-0-x-0-4-x-4-5-x-5-------4-x-4--------------9-x-9-------9-x-9-|
E|--2-x-2-------4-x-4---------------------------------------------------------7-x-7-------7-x-7-------|

E|--------------------------------------------------------------------------------7------|
B|----------------------------------------------------------------------------------7----|
G|------------------------------------------------------------------------------9-----9--|
D|----------------------------------------------------------------------------9----------|
A|--------4-X-4-----2-X-2-0-X-0-4-X-4-0-X-0-4-X-4-------2-X-2------2-X-2--2/7------------|
E|--2-X-2------4-X-4------------------------------4-X-4-------4-X-4----------------------|

F#m  E/G#  A          D  A/C#  Bm
Filho de Deus, rei da terra e céu
       F#m  E/G#  A   E
Cordeiro santo e fiel
F#m E/G# A      D  A/C#  Bm
Por me amar, ele se entregou
         F#m E/G#  A   E
Com gratidão darei louvor

( F#m  E/G#  A  Bm )
( A/C#  D  A/C# )
( Bm  A  E/G# )
( F#m  E/G#  A  F#m  E )

F#m  E/G# A    Bm A/C# D A/C#  Bm
Filho de Deus, rei da terra e céu
Bm A E/G# F#m  E/G#  A F#m E/G# E
Cordeiro  santo e fiel
F#m E/G# A Bm A/C# D A/C# Bm
Por me amar, ele se entregou
Bm  A  E/G#  F#m E/G#  A  A/C#  Bm
Com gratidão darei louvor
      A/C#     Bm
Minha força e libertação
   A/C#    D A/C# Bm
O Deus que me salvou
      A/C#   Bm
Esperança e redenção
    A/C#    D     E
Teu amor me libertou

[Refrão] 

    A         D
Cantarei ao Senhor
    A/C#       E
Bendirei o seu nome
   A/C#      D
Cantarei ao Senhor
    A/E       G
Bendirei o seu nome

[Solo] Bm  A/C#  D  D/F#  G  A 

 Bm
Diante de tua Majestade
A/C#
Minha alma cantará
F#m     E
Santo, Santo

 Bm
Diante de tua Majestade
A/C#
Minha alma cantará
F#m     E
Santo, Santo
F#m    E/G#    A  A/C#  E
Santo, Santo, santo é o teu nome ó Deus

     A       D
Cantarei ao Senhor
     A/C#      E
Bendirei o seu nome

              D 
Cantarei ao Senhor
      B/D#      G
Bendirei o seu nome
A/E A Bm A/C# D A/C#
Cantarei ao Senhor
 A#°  A G# F# G# F# Fm    
Bendirei o seu nome
A/E A Bm A/C# D A/C#
Cantarei ao Senhor
 A#°  A G# F#  G    
Bendirei o seu nome

( F#m  E/G#  A )
( Bm  A/C#  D )
00:00 / 00:00
Outros vídeos desta música
Repetir
Outros vídeos desta música
Compositor não encontrado.
Colaboração e revisão:
  • Mateus Vinícius
  • André Santos
  • Lucas Corel
36.705 exibições
    • ½ Tom
    • A
    • Bb
    • B
    • C
    • Db
    • D
    • Eb
    • E
    • F
    • F#
    • G
    • Ab
  • Adicionar à lista

    0 comentários

    Ver todos os comentários

    Conseguiu tocar?

    1 Tocaram 1 Ainda não

    Grave um vídeo tocando Filho de Deus (Bless The Lord Son Of Man) e nos envie!

    Entre para oCifra Club PRO

    Tenha acesso a benefícios exclusivos no App e no Site

    • Chega de anúncios

    • Prioridade de compra em lançamentos

    • Mais recursos no app do Afinador

    • Atendimento Prioritário

    • Descontos nos produtos Cifra Club

    • Ajude a produzir mais conteúdo

    00:00 / 00:00

    Cifra Club Pro

    Aproveite o Cifra Club com benefícios exclusivos e sem anúncios
    Cifra Club Pro
    Aproveite o Cifra Club com benefícios exclusivos e sem anúncios
    OK