Tu És Santo

Paulo César Baruk

Composição de: Thiago Grulha
tom: A
[Intro] A  F#m7  D9  Dm7
        A  F#m7  D9  Dm7

A
Louvarei
           F#m7
O teu nome louvarei
              D9
Glória e majestade estão
  Dm7
Diante de ti
  A                     F#m7
Supremo rei, soberana é sua lei
         D9                E   A/C#
Os anjos te adoram, sem cessar

Pois tu és
D9      A/C#
Santo,  Santo
          Bm7                     E   A/C#
Sei que estás ouvindo anjos te adorando
Pois tu és
D9     A/C#
Santo, Santo
          Bm7                     E
Sei que estás ouvindo anjos te adorando
              D9      A
Diante do teu trono

A
Louvarei
           F#m7
O teu nome louvarei
              D9
Glória e majestade estão
  Dm7
Diante de ti
   A                         F#m7
Se prostrarão, os montes te adorarão
                 D9
E um canto de louvor se ouve
         E
Agora no céu

Pois tu és
D9      A/C#
Santo,  Santo
Bm7                      E
Junto com os anjos te adoramos
Pois tu és
D9     A/C#
Santo, Santo
Bm7                      E
Junto com os anjos te adoramos
              D9      A
Diante do teu trono

[Solo] A  F#m7  D9  Dm7
       A  F#m7  D9  E

               A                        F#m7                          D9                            Dm7
E|----------------------------|--------------------|-----------------------------------|------------------------|
B|----------------------------|--------------------|-----------------------------------|------------------------|
G|----------------------------|--------------------|-----------------------------------|------------------------|
D|--------------9-6--6h7p6----|-----------9-6------|-6h7p6----------------------6h7p6--|------------------------|
A|--7h9--9-9-9--------------7-|-7h9--9-9-9------9--|------7-7-7-7-7-9------7-9---------|------------------------|
E|-7--------------------------|--------------------|------------------8----------------|-8-8-8-8-8\10/8---------|

               A                          F#m7                          D9                                    E
E|---------------11----------|-------------11---7/9-10-9-|---------------------------|-------------9-12\14-12---12h14-----------------|
B|---10h11-11-11----11--10-9-|-10\11-11-11---------------|-10---------------------10-|-10/12-10h12-------------------12h14------------|
G|-9-------------------------|---------------------------|----9-------7-9----9h11----|------------------------------------10h12-10-10-|
D|---------------------------|---------------------------|------12-11-----7----------|------------------------------------------------|
A|---------------------------|---------------------------|---------------------------|------------------------------------------------|
E|---------------------------|---------------------------|---------------------------|------------------------------------------------|

Pois tu és
D9      A
Santo,  Santo
          Bm7                     E
Sei que estás ouvindo anjos te adorando

Pois tu és
D9     A
Santo, Santo
Bm7                      E
Junto com os anjos te adoramos
              D9
Diante do teu trono
              A
Diante do teu trono
Página 1 / 1

Letras e título
Acordes e artista

resetar configurações
OK