Cifra Club

Beautiful Girl

Paulo Ricardo

Cifra: Principal (violão e guitarra)
Tom: B
(intro) (B E B E B E B E) G#m D#m G#m D#m E F# E F#

   B         E
E|----------------0-----||(guitar part, repeat 4x)
B|------4-----------0---||(this goes along with the piano part,
G|----4---4-----1-----1-|| try different patterns of G#m, D#m,
D|--4-------4-2---------|| E, & F# when chord changes in intro)
A|----------------------||
E|----------------------||

(piano part)
     B     E     B     E           B     E     B     E
--------------------------------|-----------------------------|
------------4-4-----------------|---------4-4-----------------|
--------4-6---------4-6-4-4-----|-----4-6---------4-6-4-4-----|
----4-6---------4-6-------------|-4-6---------4---------------|
--------------------------------|-----------------------------|
--------------------------------|-----------------------------|

     G#m   D#m  G#m   D#m   E     F#      E     F#
----4-2-4------4-2-4-------4-2-----------4-2------------------|
----------4----------4-2-------4-2-----------4-2--------------|
-------------------------4---------4---4---------4---4--------|
---------------------------------------------------------4----|
--------------------------------------------------------------|
--------------------------------------------------------------|

B               E      B                  E
Nicky's in the corner, with a black coat on
B               E        B                E
Running from a bad home, with some cat inside
B                  E        B                E
Now where did you find her, among the neon lights
B                 E                      B          E
That haunt the streets outside, she says stay with me

F#         G#m             E    (B C#m B - repete em todo início de refrão)
Beautiful girl (stay with me)
F#         G#m             E
Beautiful girl (stay with me)
C#m           E
She wanna go home

B                E       B                 E
From doorway to doorway, street corner to corner
B     E                  B        E              B
Neon ghosts in the city, and she says stay with me

(same chords as intro)
Stay with me
Stay with me
Stay with me

(same chords as first stanza and chorus)
She's so scared, so very frightened
Anything can happen, right here tonight
Beautiful girl (stay with me)
Beautiful girl (stay with me)
She wanna go home

B          E
Stay with me (beautiful girl)
B          E
Stay with me (beautiful girl)
B          E
Stay with me (beautiful girl)
B          E                   B
Stay with me (beautiful girl)
exibições 98.169
Acordes para:
    Composição: Andrew Farris Colaboração e revisão:
    • Rafael Vargas
    • Evandro Popeta
    • Paolla Magalhães

    0 comentários

    mostrar mais comentários

    Conseguiu tocar?

    3 tocaram 0 ainda não

    Grave um vídeo tocando Beautiful Girl e mande pra gente!

    00:00 / 00:00
    outros vídeos desta música
    repetir qualidade Automático
    Outros vídeos desta música
    00:00 / 00:00
    Automático
    OK