Post Paint Boy

Pavement

tom: Em Afinação: E A D G B E
Intro :

    Gtr 1:
E|--------------------------------------------------------------|
B|--------------------------------------------------------------|
G|-3-3-3-0-5--0-0------0-----0----3-3-3-0-5--0-0------0-----0---|
D|-----------------0-----0-----0------------------0-----0-----0-|
A|--------------------------------------------------------------|
E|-0------------0----0-----0------5-------5----5----5-----5-----|

E|-----------------------------------------------------------|
B|-----------------------------------------------------------|
G|-5-5-5-5--5--5--5-5-5-5-5-5--8--8------8-----8-----7--5----|
D|-----------------------------------------------0---------0-|
A|-----------------------------------------------------------|
E|-6-6-6-6--6--6--6-6-6-6-6-6--5--5---5------5---------------|



>> Gtr 2 plays the following during the intro:

    Gtr 2:
E|--------------------------------------------------------------|
B|--------------------------------------------------------------|
G|--------------------------------------------------------------|
D|--------------------------------------------------------------|
A|-5--------------------5/7\5-2-0-2------------0----------------|
E|------------------------------------------------------0-------|

E|-----------------------------------------------------------|
B|-----------------------------------------------------------|
G|-----------------------------------------2b3---------------|
D|--------------------------------4--------------------------|
A|-5--------------------5/7\5-2-0----------------------------|
E|-----------------------------------------------------------|
Página 1 / 1

Letras e título
Acordes e artista

resetar configurações
OK