Cifra Club

Aprenda

Trilha do Futuro

Pavilhão 9

Cifra: Principal (violão e guitarra)
tom: C
Versão 1
========


Intro: (D) Só Marcando com um efeito meio Wah Wah.

D Fm E D C

Chega mais chega mais aqui é pavilhao atitude respeito evolucao (ÔÔ LAPA!!!)
nao temos medo de represao contra a força nao ha recistencia nao
e é por isso que eu falo falo falo do que está errado aliados concientes
correm do meu lado além da rua eu já sei conheço bem sei quem é quem...

C D# Fm Gm

essa é a trilha do futuro dos aliados ritmo e poesia tá ligado 
é a trilha do futuro dos aliados ritmo e poesia
é a trilha do futuro dos aliados ritmo e poesia tá ligado

D Fm E D C

O Jogo da vida aprendi e nessa poesia vou usando a coerencia estou na 
rua analizando, pensando liberdade e igualdade para o ser humano, na frente
no muro é o retrato do keto livre!!! todo um pensamento tudo haver tudo ao vivo
nao dando mancada nao pagando vacilo.

::REFRÃO::

C D# Fm Gm

Essa é a trilha do futuro dos aliados ritmo e poesia tá ligado 
É a trilha do futuro dos aliados ritmo e poesia
É a trilha do futuro dos aliados ritmo e poesia tá ligado
É a trilha do futuro dos aliados ritmo e poesia.

RIFF:

E|-----------------------------------------------------|
B|-----------------------------------------------------|
G|-----------------------------------------------------|
D|-----------------------------------------------------|
A|-----5-5-5-5-5---7--8--5---------3-3-3-3-3---5-6-3---|
E|-----------------------------------------------------|


C D# Fm Gm (3X)


D Fm E D C

Pare pense bem serio a respeito, mas pense mesmo depois nao tenha jeito 
é real quebrando regras eu falo o que penso. (2X)

D Fm E D C

::REFRÃO:: (Com uma pequena mudança)

Essa é a trilha do futuro dos aliados ritmo e poesia tá ligado 
É a trilha do futuro dos aliados ritmo e poesia
É a trilha do futuro dos aliados ritmo e poesia tá ligado
É a trilha do futuro dos aliados ritmo e poesia. tá ligado!!!




_______________________________________________________


   




Versão 2
========



INTRO:
 
     Dm  D9 

e|---1---0---|
B|---3---3---|
G|---2---2---|
D|---0---0---|
A|-----------|
E|-----------|


Riff1: 

     Dm     F Em  C

e|----------------------------|
B|----------------------------|
G|---7-7-7--10-9--5-5-5-5-5---|
D|----------------------------|
A|---5-5-5--8--7--3-3-3-3-3---|
E|----------------------------|


Riff2 (refrão):

     Dm         F          G          Am

e|-----------------------------------------------------|
B|--------------6-6-6-6-6--8-8-8-8-8--10-10-10-10-10---|
G|---7-7-7-7-7--5-5-5-5-5--7-7-7-7-7--9--9--9--9--9----|
D|---7-7-7-7-7--3-3-3-3-3--5-5-5-5-5--7--7--7--7--7----|
A|---5-5-5-5-5-----------------------------------------|
E|-----------------------------------------------------|


Riff3:

    Dm      F Em  G

e|---------------------------------|
B|---------------------------------|
G|---7-7-7--10-9--12-12-12-12-12---|
D|---------------------------------|
A|---5-5-5--8--7--10-10-10-10-10---|
E|---------------------------------|


Solo:


e|------------------------------------------------------------------------------|
B|------------------------------------------------------------------------------|
G|------------------------------------------------------------------------------|
D|-----------------------------------3-----------------3----------------3-------|
A|---5-5-5-5-5-5--8--5---3-3-3-3-3-3---3---2-2-2-2-2-2---2--1-1-1-1-1-1---1-0---|
E|------------------------------------------------------------------------------|


Riff4:

     Dm         F               G               Am

e|---------------------------------------------------------------|
B|---------------------------------------------------------------|
G|---7-7-7-7-7--10-10-10-10-10--12-12-12-12-12--14-14-14-14-14---|
D|---------------------------------------------------------------|
A|---5-5-5-5-5--8--8--8--8--8---10-10-10-10-10--12-12-12-12-12---|
E|---------------------------------------------------------------|



Andamento da Musica:

.Intro 4x

.Riff1
Chega mais Chega mais, aqui é Pavilhão...Atitude Respeito Evolução
.Riff1
Não temos Medo de Repressão...Contra a força não há resistência não
.Riff1
E é por isso que eu falo, falo falo do que está errado...Aliados conscientes correm do meu lado
.Riff1                                                Dm
A lei da rua eu já sei...Conheço bem sei quem é quem


.Refrão
Essa é a Trilha do Futuro dos Aliados...Ritmo e Poesia, tá ligado?
É a Trilha do Futuro dos Aliados...Ritmo e Poesia                   2x

.Riff1
O jogo da vida aprendi...e nessa poesia vou usando a coerência
.Riff1
Estou na rua analisando pensando...Liberdade e igualdade para o ser humano
.Riff1
Grafite no muro é o retrato do gueto..Livre..todo o pensamento
.Riff3
Tudo a ver tudo ao vivo...Mandando mancada, não pagando vacilo!

.Refrão
Essa é a Trilha do Futuro dos Aliados...Ritmo e Poesia, tá ligado?
É a Trilha do Futuro dos Aliados...Ritmo e Poesia                   2x
 
.Dm
.Solo
.Riff1 4x

.Riff4
Pare e pense, bem sério a respeito, mas pense mesmo, depois não terá jeito, é real, quebrando
regras eu falo o que penso         2x       

.Refrão
Essa é a Trilha do Futuro dos Aliados...Ritmo e Poesia, tá ligado?
É a Trilha do Futuro dos Aliados...Ritmo e Poesia                   2x

.Dm
Composição de Pavilhão 9
Colaboração e revisão:
  • Tiago Melo
13.848 exibições
    • ½ Tom
    • A
    • Bb
    • B
    • C
    • Db
    • D
    • Eb
    • E
    • F
    • F#
    • G
    • Ab
  • Adicionar à lista

    0 comentários

    Ver todos os comentários

    Conseguiu tocar?

    0 Tocaram 0 Ainda não

    Grave um vídeo tocando Trilha do Futuro e nos envie!

    00:00 / 00:00
    Outros vídeos desta música
    Repetir Qualidade Automático
    Outros vídeos desta música
    00:00 / 00:00
    Automático

    Cifra Club Pro

    Aproveite o Cifra Club com benefícios exclusivos e sem anúncios
    Cifra Club Pro
    Aproveite o Cifra Club com benefícios exclusivos e sem anúncios
    OK