Cifra Club

Breath

Pearl Jam

Tab de baixo: Principal
Intro:

E|-----------------------------------------------------------------------|-
B|------------------7----------------------------------7-----------------|-
G|-7\--7----------5----5-5--5-5-5-7\--7--7---7-7-7-7-5----5-5--5-5-7\--7-|-
D|---0----0-0-0-0-------------------0------7-------------------------0---|-

E|------------------------------------------------------------------------|-
B|---------------7-----------------------------------7--------------------|-
G|-7---7-7-7-7-5----5-5-5--5-5--7\--7--7---7-7-7-7-5----5-5--5-5-5--7\--7-|-
D|---7----------------------------0------7----------------------------0---|-

E|-----------------------------------------------------------|-
B|---------------7--------------------------------------7/19-|-
G|-7---7-7-7-7-5----5-5-5--5-5-5-5-7\--7--7-0-7-7-7-7-5------|-
D|---7-------------------------------0-----------------------|-


Verse:

E|------------------------------------------------------------------------|-
B|------------------------------------------------------------------------|-
G|-7\--7--7--7-7-7-5------7\--7--7--7-7-7-5------7\--7--7--7-7-7-5-----7\-|-
D|------------------------------------------------------------------------|-

E|-------------------------|-
B|----------------------12\|-
G|-----7--7--7-7-7-5/12----|-
D|-------------------------|-

Pré-Refrão:

E|------------------------------------------------------------------------------
B|------------------7------------------------------------------7----------------
G|-7\--7----7-7-7-5----5--5-5-5--5-5-5-5-7\-----7---7--7-7-7-5----5--5-5--5-5-5-
D|---0---0---------------------------------0--0---0-----------------------------

E|-----------------------------------------------------------------------|-
B|---------------------7--------------------------------7----------------|-
G|-7\-----7------7-7-5----5-5-5--5-5-5-7\--7------7-7-5---5-5-5--5-5-5-5-|-
D|---0--0---0--0-------------------------0---0--0------------------------|-

Refrão = Intro

2º Verso:

|------------------------------------------------------------------------|-
|------------------------------------------------------------------------|-
|-7\--7--7--7-7-7-5------7\--7--7--7-7-7-5------7\--7--7--7-7-7-5-----7\-|-
|------------------------------------------------------------------------|-

|----------------------19------------|-
|-------------------------19\-12-----|-
|-----7--7--7-7-7-5/17-----------12\-|-
|------------------------------------|-

(Pré-Refrão)

(Refrão)

Ponte:

E|-------------------------------------------------------------------------|-
B|-----------------------------------------------------------------12h14---|-
G|-4--4-4-4--4-4-4--4-4-4--4-4-4--4-4-4--4-4-4--4-4-4-6-6-6-6/7------------|-
D|--------------------------------------------------------------0--------0-|-

E|-------------------------------------------------------------------------|-
B|-------12h14-------------------------------------------------------------|-
G|-12h14---------------4--4-4-4--4-4-4--4-4-4--2-2-4--4-4-4--4-4-4--4-4-4--|-
D|-------------0-0-0-0-----------------------------------------------------|-

E|-------------------------------------------------------------------------|-
B|--------------12h14--------12h14-------12h14-----------------------------|-
G|-6-6-6-6/7-----------12h14-------12h14-----------------------------------|-
D|-----------0---------------------------------0--0--4-4-4-4-4--4-4-4--4-4-|-
                                                
E|---------------------------------------------------------------------------|-
B|---------------------------------------------------------------------------|-
G|---------------------------------------------------------------------------|-
D|-4-4--4-4-4--4-4-4--4-4-4-4--4-4-4-4--4-4-5--5-5-5--5-5-5--5-5-5--0-5/14-0-|-

(Refrão)
00:00 / 00:00
Outros vídeos desta música
Repetir
Outros vídeos desta música
Composição de Eddie Vedder / Stone Gossard
Colaboração e revisão:
  • Rodrigo Deth
99 exibições

0 comentários

Ver todos os comentários

Conseguiu tocar?

0 Tocaram 0 Ainda não

Grave um vídeo tocando Breath e nos envie!

Entre para oCifra Club PRO

Tenha acesso a benefícios exclusivos no App e no Site

  • Chega de anúncios

  • Prioridade de compra em lançamentos

  • Mais recursos no app do Afinador

  • Atendimento Prioritário

  • Descontos nos produtos Cifra Club

  • Ajude a produzir mais conteúdo

00:00 / 00:00

Cifra Club Pro

Aproveite o Cifra Club com benefícios exclusivos e sem anúncios
Cifra Club Pro
Aproveite o Cifra Club com benefícios exclusivos e sem anúncios
OK