Cifra Club

Daughter

Pearl Jam

Cifra: Afinacao-em-g-aberto (violão e guitarra)
tom: G
Afinção: G G D G B D

[Intro] 

E|-------------0--------------------------------------|
B|-----------0---0------------------------------------|
G|--------0--------0----------------------------------|
D|-----7----------------------------------------------|
A|---5------------------------------------------------|
E|----------------------------------------------------|
 
[Tab - Verso e Refrão]

E|-0-0--0--0-----0---0---0-0-0--0---0--0----0--0-0-0-0|
B|-0-0--0--0-----0---0---0-0-0--0---0--0----0--0-0-0-0|
G|-0-0--0--0-----0---0---0-0-0--0---0--0--/-0--0-0-0-0|
D|-0-0--0--7--/--9---7---9-9-9--9---0--7----9--7-7-7-7|
A|-0-0--0--5--/--7---5---7-7-7--7---0--5----7--5-5-5-5|
E|-0-0--0--0-----0---0---0-0-0--0---0--0----0--0-0-0-0|

E|-0-0----0--0-0-0-0-0-0-0-0-0-0-0----0---------------|
B|-0-0----0--0-0-0-0-0-0-0-0-0-0-0----0---------------|
G|-0-0-/--0--0-0-0-0-0-0-0-0-0-0-0--/-0---------------|
D|-0-7----9--7-7-7-7-7-7-7-7-7-7-7----9---------------|
A|-0-5----7--5-5-5-5-5-5-5-5-5-5-5----7---------------|
E|-0-0----0--0-0-0-0-0-0-0-0-0-0-0----0---------------|

[Tab - Ponte]

E|-0--0--0--0--0--0---0--0--0--0--0--0----------------|
B|-0--0--0--0--0--0---0--0--0--0--0--0----------------|
G|-0--0--0--0--0--0---0--0--0--0--0--0----------------|
D|-12-12-12-12-12-12--11-11-11-11-11-11---------------|
A|-9--9--9--9--9--9---9--9--9--9--9--9----------------|
E|-0--0--0--0--0--0---0--0--0--0--0--0----------------|
 
[Intro] 

E|----------------------------------------------------|
B|-3--3--3--3-3-3-------------------------------------|
G|-0--4--2--4-4-4-------------------------------------|
D|-0--0--0--0-0-0-------------------------------------|
A|----------------------------------------------------|
E|-3--3-----3-3-3-------------------------------------|

E|----------------------------------------------------|
B|-3--3--3--3--3-3------------------------------------|
G|-0--4--2--0--0-0------------------------------------|
D|-0--0--0--0--0-0------------------------------------|
A|----------------------------------------------------|
E|-3--3-----3--3-3------------------------------------|

E|----------------------------------------------------|
B|-3--3--3--3--3-3-----3--3-3--3-3--3-3---------------|
G|-0--4--2--0--0-0-----2--2-2--2-2--2-2---------------|
D|-0--0--0--0--0-0-----0--0-0--0-0--0-0---------------|
A|----------------------------------------------------|
E|-3--3-----3--3-3-----3--3-3--3-3--3-3---------------|

G       G4      G      G4   G       G4    G      G4
Alone, listless. Breakfast table in an otherwise empty room
G      G4  G    G4     G         G4 G      G4
Young girl, violence. Center of her own attention
  G     G4             G  G4    G      G4
The mother reads aloud, child tries to understand it
  G       G4
Tries to make her proud
G       G4            Em7  Em6 Em7    Em6
  The shades go down. It's in her head
               Em7     Em6        Em7        Em6
Painted room. Can't deny there's something wrong

 G     G4                    G   G4
Don't call me daughter. Not fit to
G      G4           G      G4
  The picture kept will remind me
 G     G4                    G   G4
Don't call me daughter. Not fit to
G      G4           G      G4
  The picture kept will remind me
 G     G4
Don't call me

( Em7  Em6  Em7  Em6 )
( Em7  Em6  Em7 )
( Em6  G  G4 )

Em7   Em6       Em7       Em6       Em7  Em6
 She holds the hand that holds her down
  Em7     Em6       G   G4  G  G4 
She will rise above. Ooh    oh

( G G4 G G4 )
( G  G4  G  G4 )
( G  G4  G  G4 )

G
  Don't call me daughter. Not fit to
G
  The picture kept will remind me
G
  Don't call me daughter. Not fit to be
G
  The picture kept will remind me
 G     G4                    G   G4
Don't call me daughter. Not fit to
G      G4           G      G4
  The picture kept will remind me
 G     G4                    G   G4
Don't call me daughter. Not fit to be
G      G4           G      G4
  The picture kept will remind me
       G
Don't call me

The shades go down

The shades go down

The shades go go go
00:00 / 00:00
Outros vídeos desta música
Repetir
Outros vídeos desta música
Composição de Dave Abbruzzese / Eddie Vedder / Jeff Ament / Mike McCready / Stone Gossard
Colaboração e revisão:
  • Walter Jr.
531 exibições
    • ½ Tom
    • A
    • Bb
    • B
    • C
    • Db
    • D
    • Eb
    • E
    • F
    • F#
    • G
    • Ab
  • Adicionar à lista

    0 comentários

    Ver todos os comentários

    Conseguiu tocar?

    0 Tocaram 0 Ainda não

    Grave um vídeo tocando Daughter e nos envie!

    Entre para oCifra Club PRO

    Tenha acesso a benefícios exclusivos no App e no Site

    • Chega de anúncios

    • Prioridade de compra em lançamentos

    • Mais recursos no app do Afinador

    • Atendimento Prioritário

    • Descontos nos produtos Cifra Club

    • Ajude a produzir mais conteúdo

    00:00 / 00:00

    Cifra Club Pro

    Aproveite o Cifra Club com benefícios exclusivos e sem anúncios
    Cifra Club Pro
    Aproveite o Cifra Club com benefícios exclusivos e sem anúncios
    OK