Cifra Club

Even Flow

Pearl Jam

Tab de baixo: Principal
[Introdução]

Parte 01

G|----------------------------------------------|
D|----------------------------------------------|
A|---------5--------------5--------------5--5-5-|
D|-0-0-3/4---0-0--0-0-3/4---0-0--0-0-3/4--------|
                            
G|----------------------------------------------|
D|-----------------------h.5/-------------------|
A|-0-5-3-----------------h.5/-------------------|
D|-------5-4p3-0-0h3-0--------------------------|

[Primeira Parte]

Freezin', rests his head on a pillow made of...

Parte 01 ( Tocar 3x )

G|----------------------------------------------|
D|----------------------------------------------|
A|---------5---------------5---------------5----|
D|-0—0-3/4---0-0--0--0-3/4---0-0--0--0-3/4---0-0|

G|----------------------------------------------|
D|----------------------------------------------|
A|---------5------------------------------------|
D|-0—0-3/4---0-0--------------------------------|

Parte 02

G|----------------------------------------------|
D|----------------------------------------------|
A|---------5---------------5---------------5-5-5|
D|-0—0-3/4---0-0--0--0-3/4---0-0--0--0-3/4------|

G|----------------------------------------------|
D|----------------------------------------------|
A|-5-5-5-5--0-5-3-------------------------------|
D|----------------5-4p3-0-0h3-0-----------------|

Parte 03

G|----------------------------------------------|
D|----------------------------------------------|
A|---------5-------------------5----------------|
D|-0-0-3/4---0-0--0-0--0-0-3/4---0-0--0-0-------|

G|----------------------------------------------|
D|----------------------------------------------|
A|---------5-5-5-5--5-5-5--0-5-3----------------|
D|-0-0-3/4-----------------------5-4p3-0-0h3-0--|
  
G|----------------------------------------------|
D|--h.5/----------------------------------------|
A|--h.5/----------------------------------------|
D|----------------------------------------------|

[Refrão]

Even flow, thoughts arrive like butterflies...

Parte 01 ( tocar 2x )

G|-------3-------3----3------------5-------5----|
D|----------------------------------------------|
A|-5-5-1---1-0-1---1----1-1--5-5-3---3-0-3---3--|
D|----------------------------------------------|

G|-5--------------------------------------------|
D|----------------------------------------------|
A|---3------------------------------------------|
D|----------------------------------------------|

Parte 02

G|-------3-------3----3------------5------------|
D|----------------------------------------------|
A|-5-5-1---1-0-1---1----1-1--5-5-3---3--5-5--3--|
D|----------------------------------------------|

G|--------------5/------------------------------|
D|----------------------------------------------|
A|-3-3-0-5-5-3-----3/---------------------------|
D|----------------------------------------------|

[Segunda Parte]

Kneelin', looking through the paper though he...

Parte 01 

G|----------------------------------------------|
D|----------------------------------------------|
A|---------5---------------5---------------5----|
D|-0—0-3/4---0-0--0--0-3/4---0-0--0--0-3/4---0-0|

G|----------------------------------------------|
D|----------------------------------------------|
A|---------5-----3-3-3--------------------------|
D|-0—0-3/4---0-0--------------------------------|

Parte 02

G|----------------------------------------------|
D|----------------------------------------------|
A|---------5---5-----------5---------------5----|
D|-0—0-3/4---0----0--0-3/4---0-0--0--0-3/4---0-0|

G|----------------------------------------------|
D|----------------------------------------------|
A|---------5--5-5--3-3-3------------------------|
D|-0—0-3/4--------------------------------------|

Parte 03

G|----------------------------------------------|
D|----------------------------------------------|
A|---------5---5-----------5---------------5----|
D|-0—0-3/4---0---0-0-0-3/4---0-0--0--0-3/4---0-0|

G|----------------------------------------------|
D|----------------------------------------------|
A|---------5---------------5---------------5----|
D|-0—0-3/4---0-0--0--0-3/4---0-0--0--0-3/4---0-0|

Parte 04

G|----------------------------------------------|
D|----------------------------------------------|
A|---------5--5-5-5-5--5-5-5--0-5-3-------------|
D|-0—0-3/4--------------------------5-4p3-0-0h3-|

G|----------------------------------------------|
D|----h.5/--------------------------------------|
A|----h.5/--------------------------------------|
D|-0--------------------------------------------|

[Refrão 2]

Even flow, thoughts arrive like butterflies...

Parte 01 ( tocar 2x )

G|-------3-------3----3------------5-------5----|
D|----------------------------------------------|
A|-5/2-1---1-0-1---1----1-1--5-5-3---3-0-3---3--|
D|----------------------------------------------|

G|-5--------------------------------------------|
D|----------------------------------------------|
A|---3------------------------------------------|
D|----------------------------------------------|

Parte 02

G|---------3-------3----3-----------5-----------|
D|----------------------------------------------|
A|-5-5/2-1---1-0-1---1----1-1-5-5-3---3-3-3-3-3-|
D|----------------------------------------------|

G|----------------------------------------------|
D|----------------------------------------------|
A|-3-3-3-3--3-3-3-3--3-3------------------------|
D|----------------------------------------------|

Parte 03

G|-------3-------3----3------------5------------|
D|----------------------------------------------|
A|-5-5-1---1-0-1---1----1-1--5-5-3---3--5-5--3--|
D|----------------------------------------------|

G|----------------------------------------------|
D|----------------------------------------------|
A|-3-3--0-5-5--3--3-3--0-5-5--3-----------------|
D|----------------------------------------------|

[Solo de Guitarra]

Parte 01 ( tocar 3x )

G|----------------------------------------------|
D|----------------------------------------------|
A|-3-3-3-3--5-5-5--5-5-5-0----------------------|
D|----------------------------------------------|

Parte 02

G|----------------------------------------------|
D|----------------3-----------------------------|
A|-3-3-3-3--5-5-5---5---------------------------|
D|--------------------0-3-5---------------------|

Parte 03 ( tocar 6x )

G|----------------------------------------------|
D|----------------------------------------------|
A|-0-3-3-3-3--3-3-5--5-5-5----------------------|
D|----------------------------------------------|

Parte 04

G|----------------------------------------------|
D|------------------------3-3-3-3-3-3-3-3-3-3-3-|
A|-0-3-3-3-3--3-3-5-5-5-5-----------------------|
D|----------------------------------------------|

Parte 05 ( tocar 12x )

G|----------------------------------------------|
D|----------------------------------------------|
A|-0-3-3-3-3--3-3-5--5-5-5----------------------|
D|----------------------------------------------|

Parte 06 

G|----------------------------------------------|
D|----------------------------------------------|
A|-3-3-3--5-5-5--5-0----------------------------|
D|----------------------------------------------|

Parte 07

G|----------------------------------------------|
D|----------------------------------------------|
A|-3-3-4-4-5--5-5-------------------------------|
D|----------------------------------------------|

[Refrão 3]

Even flow, thoughts arrive like butterflies...

Parte 01 ( tocar 3x )

G|-------3-------3----3------------5-------5----|
D|----------------------------------------------|
A|-5-5-1---1-0-1---1----1-1--5-5-3---3-0-3---3--|
D|----------------------------------------------|

G|----------------------------------------------|
D|----------------------------------------------|
A|-3-3-3--3-3-----------------------------------|
D|----------------------------------------------|

Parte 02

G|-------3------3-----3------------5/---------5/|
D|----------------------------------------------|
A|-5-5-1---1-0-1---1----1-1--5-5-3---3/-5-5-3---|
D|----------------------------------------------|

G|-----------5/---------------------------------|
D|----------------------------------------------|
A|-3/-5-5—3---3/--5-5--3--3/--------------------|
D|----------------------------------------------|

Terceira Parte ( Final )

Parte 01 ( tocar 3x )

G|----------------------------------------------|
D|----------------------------------------------|
A|-3-3-3-3--5-5-5--5-5-5-0----------------------|
D|----------------------------------------------|

Parte 02

G|----------------------------------------------|
D|----------------3-----------------------------|
A|-3-3-3-3--5-5-5---5---------------------------|
D|--------------------0-3-5---------------------|

Parte 03 ( toca 3x )

G|----------------------------------------------|
D|----------------------------------------------|
A|-3-3-3-3--5-5-5--5-5-5-0----------------------|
D|----------------------------------------------|

Parte 04

G|----------------------------------------------|
D|----------------------------------------------|
A|-3-3-3-3--5-5-5--5-5--------------------------|
D|-----------------------0----------------------|
00:00 / 00:00
Outros vídeos desta música
Repetir
Outros vídeos desta música
Composição de Eddie Vedder / Stone Gossard
Colaboração e revisão:
  • Reginaldo Costa
  • Marcos kahks
56.172 exibições

0 comentários

Ver todos os comentários

Entre para oCifra Club PRO

Tenha acesso a benefícios exclusivos no App e no Site

  • Chega de anúncios

  • Prioridade de compra em lançamentos

  • Mais recursos no app do Afinador

  • Atendimento Prioritário

  • Descontos nos produtos Cifra Club

  • Ajude a produzir mais conteúdo

00:00 / 00:00
Capítulos
  • Tocando a música
  • Dicas Iniciais / Equipamentos
  • Introdução
  • Primeira Parte - Parte 1 de 3
  • Primeira Parte - Parte 2 de 3
  • Primeira Parte - Parte 3 de 3
  • Refrão 1 - Parte 1 de 2
  • Refrão 1 - Parte 2 de 2
  • Segunda Parte - Parte 1 de 4
  • Segunda Parte - Parte 2 de 4
  • Segunda Parte - Parte 3 de 4
  • Segunda Parte - Parte 4 de 4
  • Refrão 2 - Parte 1 de 3
  • Refrão 2 - Parte 2 de 3
  • Refrão 2 - Parte 3 de 3
  • Solo de Guitarra - Parte 2 de 7
  • Solo de Guitarra - Parte 3 de 7
  • Solo de Guitarra - Parte 4 de 7
  • Solo de Guitarra - Parte 5 de 7
  • Solo de Guitarra - Parte 6 de 7
  • Solo de Guitarra - Parte 7 de 7
  • Refrão 3 - Parte 1 de 2
  • Refrão 3 - Parte 2 de 2
  • Terceira Parte - Parte 1 de 4
  • Terceira Parte - Parte 2 de 4
  • Terceira Parte - Parte 3 de 4
  • Terceira Parte - Parte 4 de 4
  • Encerramento
  • Ficha Técnica
  • Solo de Guitarra - Parte 1 de 7

Cifra Club Pro

Aproveite o Cifra Club com benefícios exclusivos e sem anúncios
Cifra Club Pro
Aproveite o Cifra Club com benefícios exclusivos e sem anúncios
OK