Cifra Club

Rockin' In The Free World

Pearl Jam

Cifra: Principal (violão e guitarra)
tom: G
Introdução: (Em D C) 5x
e|-7-7--7-7--7-7--7-7---5--5--3--3-|
B|-8-8--8-8--8-8--8-8---7--7--5--5-|
G|-9-9--9-9--9-9--9-9---7--7--5--5-|
D|-9-9--9-9--9-9--9-9---7--7--5--5-|
A|-7-7--7-7--7-7--7-7---5--5--3--3-|
E|---------------------------------|
 |---------------5x----------------|

Verso:
e|-7-7--7-7--7-7--7-7---5--5--3--3-|
B|-8-8--8-8--8-8--8-8---7--7--5--5-|
G|-9-9--9-9--9-9--9-9---7--7--5--5-|
D|-9-9--9-9--9-9--9-9---7--7--5--5-|
A|-7-7--7-7--7-7--7-7---5--5--3--3-|
E|---------------------------------|
   Em                D C
Colours on the street
      Em          D C
Red white and blue
         Em                D C
People shufflin' their feet
          Em                  D C
People sleepin' in their shoes
               Em                  D     C
But there's a warnin' sign on the road ahead
           Em                          D           C
There's a lot of people sayin' we'd be better off dead
       Em                 D       C
Don't feel like satan but I'm to them
       Em               D       C
So I try to forget it anyway I can

Refrão:
e|-2--2-2--2-2-2---2--2-2--2-2-2---0--0-0--0-0-0---0-0--0-|
B|-2--2-2--2-2-2---3--3-3--3-3-3---1--1-1--1-1-1---0-0--0-|
G|-0--0-0--0-0-0---2--2-2--2-2-2---0--0-0--0-0-0---0-0--0-|
D|-0--0-0--0-0-0---0--0-0--0-0-0---2--2-2--2-2-2---2-2--0-|
A|-2--2-2--2-2-2-------------------3--3-3--3-3-3---2-2--0-|
E|-3--3-3--3-3-3-----------------------------------0-0--0-|
G         D                 C   
 Keep on rockin'in the free world
G         D                 C   
 Keep on rockin'in the free world
G         D                 C  
 Keep on rockin'in the free world
G         D                 C   
 Keep on rockin'in the free world

Ponte:
e|-------------|
B|-------------|
G|-2--2-2--2-0-|
D|-2--2-2--2-0-|
A|-0--0-0--0-0-|
E|-------------|
 |-----4x------|

Passagem: (Em D C) 4x
e|-7-7--7-7--7-7--7-7---5--5--3--3-|
B|-8-8--8-8--8-8--8-8---7--7--5--5-|
G|-9-9--9-9--9-9--9-9---7--7--5--5-|
D|-9-9--9-9--9-9--9-9---7--7--5--5-|
A|-7-7--7-7--7-7--7-7---5--5--3--3-|
E|---------------------------------|
 |---------------4x----------------|

Verso:
e|-7-7--7-7--7-7--7-7---5--5--3--3-|
B|-8-8--8-8--8-8--8-8---7--7--5--5-|
G|-9-9--9-9--9-9--9-9---7--7--5--5-|
D|-9-9--9-9--9-9--9-9---7--7--5--5-|
A|-7-7--7-7--7-7--7-7---5--5--3--3-|
E|---------------------------------|
   Em                   D C
I see a girl in the night
        Em             D C
With a baby in her hand
         Em              D C
Under an old street light
        Em        D C
Near a garbage can
         Em                          D          C
Now she puts the kid away and she's gone to get a hit
     Em                            D      C
She hates her life and what she's done to it
       Em                      D             C
That's one more kid that will never go to school
       Em                  D               C
Never get to fall in love never get to be cool

Refrão:
e|-2--2-2--2-2-2---2--2-2--2-2-2---0--0-0--0-0-0---0-0--0-|
B|-2--2-2--2-2-2---3--3-3--3-3-3---1--1-1--1-1-1---0-0--0-|
G|-0--0-0--0-0-0---2--2-2--2-2-2---0--0-0--0-0-0---0-0--0-|
D|-0--0-0--0-0-0---0--0-0--0-0-0---2--2-2--2-2-2---2-2--0-|
A|-2--2-2--2-2-2-------------------3--3-3--3-3-3---2-2--0-|
E|-3--3-3--3-3-3-----------------------------------0-0--0-|
G         D                 C   
 Keep on rockin'in the free world
G         D                 C   
 Keep on rockin'in the free world
G         D                 C   
 Keep on rockin'in the free world
G         D                 C   
 Keep on rockin'in the free world

Ponte:
e|-------------|
B|-------------|
G|-2--2-2--2-0-|
D|-2--2-2--2-0-|
A|-0--0-0--0-0-|
E|-------------|
 |-----4x------|

Solo: (Em D C) 8x
e|-12-12-12-12-12-12-12---^^^^^^^^^--------------------------------|
B|-12-12-12-12-12-12----15--15-15-15-12-------^^^^^^^--12-------12-|
G|--------------------------------------15-12-12-12h14----14-14----|
D|-----------------------------------------------------------------|
A|-----------------------------------------------------------------|
E|-----------------------------------------------------------------|

e|-----------^^^^^12-15b15b15^^^15b---12--------------------------|
B|-12-------12----12---------------15-------------------14--------|
G|----14b14-14-14------------------------14-14-12-^^^^^-14-12-----|
D|------------------------------------------------14-14-----------|
A|----------------------------------------------------------------|
E|----------------------------------------------------------------|

e|-------------------------------0---------------------12-12-12-12-|
B|-------------------------------0-15---------------15-15-15-15-15-|
G|12----------12--^^^^^------12b14b---14-12-14b-14b----------------|
D|---14-12----12-14----14-14---------------------------------------|
A|---------14------------------------------------------------------|
E|-----------------------------------------------------------------|

e|-12-12---------^^^^^-12----12-12b---15-15^^^^14 15--------------|
B|-15-15-12-15-15---------15b---15b15----------------15-----------|
G|-------------------------------0-------------------15-----------|
D|----------------------------------------------------------------|
A|----------------------------------------------------------------|
E|----------------------------------------------------------------|

e|-15-14-12^^^^12^^^15-14-12----12-14-12-15b-|
B|---------------------------15--------------|
G|-------------------------------------------|
D|-------------------------------------------|
A|-------------------------------------------|
E|-------------------------------------------|

Passagem: sem tocar
e|-7-7--7-7--7-7--7-7---5--5--3--3-|
B|-8-8--8-8--8-8--8-8---7--7--5--5-|
G|-9-9--9-9--9-9--9-9---7--7--5--5-|
D|-9-9--9-9--9-9--9-9---7--7--5--5-|
A|-7-7--7-7--7-7--7-7---5--5--3--3-|
E|---------------------------------|

Verso:
e|-7-7--7-7--7-7--7-7---5--5--3--3-|
B|-8-8--8-8--8-8--8-8---7--7--5--5-|
G|-9-9--9-9--9-9--9-9---7--7--5--5-|
D|-9-9--9-9--9-9--9-9---7--7--5--5-|
A|-7-7--7-7--7-7--7-7---5--5--3--3-|
E|---------------------------------|
    Em                          D C
We got a thousand points of light
         Em         D C
For the homeless man
          Em                D        C   Em D C
We got a kinder gentler machine gun hand
          Em                  D      C
We got department stores and toilet paper
      Em                     D       C
Got styrophone boxes for the ozone layer
       Em                     D          C
Got a man of the people says keep hope alive
     Em                D        C
Got fuel to burn got roads to drive

Refrão:
e|-2--2-2--2-2-2---2--2-2--2-2-2---0--0-0--0-0-0---0-0--0-|
B|-2--2-2--2-2-2---3--3-3--3-3-3---1--1-1--1-1-1---0-0--0-|
G|-0--0-0--0-0-0---2--2-2--2-2-2---0--0-0--0-0-0---0-0--0-|
D|-0--0-0--0-0-0---0--0-0--0-0-0---2--2-2--2-2-2---2-2--0-|
A|-2--2-2--2-2-2-------------------3--3-3--3-3-3---2-2--0-|
E|-3--3-3--3-3-3-----------------------------------0-0--0-|
G         D                 C   
 Keep on rockin'in the free world
G         D                 C   
 Keep on rockin'in the free world
G         D                 C   
 Keep on rockin'in the free world
G         D                 C   
 Keep on rockin'in the free world

Final: (Em D C) 28x
00:00 / 00:00
Outros vídeos desta música
Repetir
Outros vídeos desta música
Composição de Neil Young
Colaboração e revisão:
  • Victor Teixeira
24.871 exibições
    • ½ Tom
    • A
    • Bb
    • B
    • C
    • Db
    • D
    • Eb
    • E
    • F
    • F#
    • G
    • Ab
  • Adicionar à lista

    0 comentários

    Ver todos os comentários

    Conseguiu tocar?

    2 Tocaram 0 Ainda não

    Grave um vídeo tocando Rockin' In The Free World e nos envie!

    Entre para oCifra Club PRO

    Tenha acesso a benefícios exclusivos no App e no Site

    • Chega de anúncios

    • Prioridade de compra em lançamentos

    • Mais recursos no app do Afinador

    • Atendimento Prioritário

    • Descontos nos produtos Cifra Club

    • Ajude a produzir mais conteúdo

    00:00 / 00:00

    Cifra Club Pro

    Aproveite o Cifra Club com benefícios exclusivos e sem anúncios
    Cifra Club Pro
    Aproveite o Cifra Club com benefícios exclusivos e sem anúncios
    OK