Quick Escape

Pearl Jam

Composição de: Eddie Vedder / Jeff Ament
tom: A
[Intro]
 
E|------------------------------------------------|
B|--12--12----12--12--11----12--12----12--12--14--|
G|--13--13----13--13--11----13--13----13--13--15--|
D|------------------------------------------------|
A|------------------------------------------------|
E|------------------------------------------------|
 
E|------------12--12--14--------------------------|
B|--14--14----14--14--16--------------------------|
G|--14--14----14--14--16--------------------------|
D|------------------------------------------------|
A|------------------------------------------------|
E|------------------------------------------------|
 
[Chorus Riff]
 
( E  D  E  D  E  D  E  D )
 
[Primeira Parte]

(Riff)
 
E|------------------------------------------------|
B|------------------------------------------------|
G|------------------------------------------------|
D|------------------------------------------------|
A|--5--6--7--5--6--7--5--6--7--5--7---------------|
E|-----------------------------------0------------|

 D                     E
Reconnaissance on the corner
       D                 E
In the old world not so far
D                      E
First we took an aeroplane
        D          E
Then a boat to Zanzibar
 
A
Queen cranking on the blaster
 
And Mercury did rise
E
Come along where we all belonged
 
You were yours and I was mine
 
( E )
 
[Refrão]

E|--------------------------------------------------|
B|--------------------------------------------------|
G|--------------------------------------------------|
D|--------------------------------------------------|
A|--3--0-----------3--0----2/7----------------------|
E|----------0---------------------------------------|

    B  E            C   A
Had to,... Quick escape
    E               C   A  B  E
Had to,... Quick escape
 
( E  D  E  D )
( E  D  E  D )
 
[Primeira Parte]

  D                      E
Crossed the border to Morocco
 D                 E
Kashmir then Marrakesh
     D                        E
The lengths we had to go to then
            D                 E
To find a place Trump hadn’t fucked up yet
 
 A
Living life on the back porch
 
Lifting rocks to make a wage
E
Every sunset paid attention to
 
Not a starry night went to waste
 
[Refrão]

 C  A  E              C    A
Had  to,...  Quick escape
    B  E            C   A
Had to,... Quick escape
    E               C   A  B  E
Had to,... Quick escape
 

( C A E )
( C A E )
( C A E )
( E )
 
[Ponte]

E
And here we are, the red planet
 
Craters across the skyline
 
A sleep sack in a bivouac
 
And a Kerouac sense of time
 
C                      A
And we think about the old days
C                        A
Of green grass, sky and red wine
  E
Shouldn’t known, so fragile
 
And avoided this one-way flight
 
[Refrão]

 C  A  E              C    A
Had  to,...  Quick escape
    B  E            C   A
Had to,... Quick escape
    E               C   A  B  E
Had to,... Quick escape
 
[Final] E
        C  A  E
Página 1 / 1

Letras e título
Acordes e artista

resetar configurações
OK