Cifra Club

Someday At Christmas

Pearl Jam

Cifra: Principal (violão e guitarra)
tom: A
Played w/ slight variation throughout. Tried to get the chords lined up as best 
as possible. At the "One happy morning, people will care," I changed the chord
played from xxx666 to xx11-10-11x because of the slide up the neck. It's the same
chord so if you prefer the xxx666 (and its position after key changes), playing
it like that is just fine (both chords are identical).

G2 plays a lot of Wah filler/noise throughout the song.

-|----------------------------------------------------------------------------
-|----------------------------------------------------------------------------
-|---13---14-13-12-13-14-----15--16-------------------------------------------
-|----------------------------------------------------------------------------
-|---11---12-11-10-11-12-----13--14-------------------------------------------
-|----------------------------------------------------------------------------
   Intro                                                                     

-|---4--5-4-3-4---5---6-7-----------------------------------------------------
-|---4--5-4-3-4---5---6-7-----------------------------------------------------
-|---4--5-4-3-4---6---7-8-----------------------------------------------------
-|----------------------------------------------------------------------------
-|----------------------------------------------------------------------------
-|----------------------------------------------------------------------------
   G2

-|--------7----------7----------------------7----------------7-------7---5----
-|--------9----------9----7----------7------7----------------7-------7---7----
-|--------9----------9----8----------8------7----------------7-------7---6----
-|------------------------9----------9----------------------------------------
-|----------------------------------------------------------------------------
-|----------------------------------------------------------------------------
    Someday at Christmas men won't be boys playing with bombs like kids play  

-|----------------5------------5-------------5----4-------2-------------------
-|----------------5------------5-------------5----5-------2-------------------
-|----------------5------------5------------------4-------2-------------------
-|----------------------------------------------------------------------------
-|----------------------------------------------------------------------------
-|----------------------------------------------------------------------------
    with toys.  One warm December our hearts will see a world where we are    

-|--2--2-------7----------7------------------------------7-------------7------
-|--4--4-------9----------9------------7------9----------7-------------7------
-|--4--4-------9----------9------------8------8----------7-------------7------
-|-------------------------------------9------9-------------------------------
-|----------------------------------------------------------------------------
-|----------------------------------------------------------------------------
    free. Someday at Christmas there'll be no wars when we have learned what  

-|-------7------5--------5----------5-----------5---------4------------2------
-|-------7------7--------5----------5-----------5---------5------------2------
-|-------7------6---6/---5----------5---------------------4-------------------
-|------------------------------------------------------------------4---------
-|----------------------------------------------------------------------------
-|----------------------------------------------------------------------------
   Christmas is for, when we have found what life's really worth there'll be  

-|----2----------------8----------------------------------------8--------8----
-|----2-----0----------10---------10----------8-------8---------8--------8----
-|----------1----------10---------10----------9-------9-----8---8--------8----
-|----------2-------/-------------------------10------10----------------------
-|----------------------------------------------------------------------------
-|----------------------------------------------------------------------------
   peace on Earth. Someday all our dreams will come to be. Someday in a world 

-|-----------8---6-------------------6------6----------6---5---------3--------
-|-----------8---8-------------------6------6----------6---6---------3--------
-|-----------8---7-------------------6------6----------6---5---------3--------
-|-------------------------------------------------------------------5--------
-|----------------------------------------------------------------------------
-|----------------------------------------------------------------------------
   where we can love free. Oh, maybe not in time for you and me but someday   

-|------------------------8-------------------------------------8-------------
-|-------------1----------10-------10----------8------8---------8-------------
-|-------------2----------10-------10----------9------9---------8-------------
-|-------------3-------10----------------------10-----10----------------------
-|----------------------------------------------------------------------------
-|----------------------------------------------------------------------------
   at Christmas time. Someday at Christmas we'll see a land: no hungry        

-|--8------------8---6-----------------------------------------------3--------
-|--8------------8---8---------11---11------------11-----10----------3--------
-|--8------7-----8---7---/10---10---10------------10-----10----------3--------
-|-----------------------------11---11------------11-----10----------5--------
-|----------------------------------------------------------------------------
-|----------------------------------------------------------------------------
    children, no empty hands, one happy morning people will share a world     

-|---3---------3--3---3------8----------8------------------------------8------
-|---3---------5--5---5------10---------10----------8-----8------------8------
-|---3---------5--5---5------10---------10----------9-----9------------8------
-|-----------------------/10------------------------10----10------------------
-|----------------------------------------------------------------------------
-|----------------------------------------------------------------------------
   where people care.    Someday at Christmas there'll be no tears when all   

-|------------8-----------8---6--------------6------6----------------6---5----
-|------------8-----------8---8--------------6------6----------------6---6----
-|------------8-----------8---7--------------6------6----------------6---5----
-|----------------------------------------------------------------------------
-|----------------------------------------------------------------------------
-|----------------------------------------------------------------------------
    of us are equal and live without fears. One shining moment, one cry away  

-|-----3--------------------9--------9------------------------------9---------
-|-----3---------1----------11-------11-----9--------9--------------9---------
-|-----3---------2----------11-------11-----10-------10-------------9---------
-|-----5---------3--------------------------11-------11-----------------------
-|----------------------------------------------------------------------------
-|----------------------------------------------------------------------------
   for our world today. Someday all our dreams will come to be. Someday in a  
                          (w/ some heavy Wah)

-|--9----------9-----7------------7----7--7--7-----------------7----6---------
-|--9----------9-----9------------7----7--7--7-----------------7----7---------
-|--9----------9-----8------------7----7--7--7-----------------7----6---------
-|----------------------------------------------------------------------------
-|----------------------------------------------------------------------------
-|----------------------------------------------------------------------------
   world where minds will be free.. oh, maybe not in time for you and me. But 

-|---4------4--4-4-4--------------10-----------10-----------------------------
-|---4------4--4-4-4----2---------12-----------12--------10-----10------------
-|---4------4--4-4-4----3---------12-----------12--------11-----11------------
-|---6------------------4--------------------------------12-----12------------
-|----------------------------------------------------------------------------
-|----------------------------------------------------------------------------
    someday at Christmas time. Someday at Christmas men will not have failed. 
                                 (G2 plays an open G at this change)

-|-10---------10----------10-------8-------------8------8--------------8------
-|-10---------10----------10-------10------------8------8--------------8------
-|-10---------10----------10-------9-------------8------8--------------8------
-|----------------------------------------------------------------------------
-|----------------------------------------------------------------------------
-|----------------------------------------------------------------------------
   Hate would be gone and love will prevail. Someday a new world that we can  

-|-----7----------5----------5---5-5--5-5------10---------10------------------
-|-----8----------5----------7---7-7--7-7------12---------12--------10----10--
-|-----7----------5----------7---7-7--7-7------12---------12--------11----11--
-|----------------7-------------------------------------------------12----12--
-|----------------------------------------------------------------------------
-|----------------------------------------------------------------------------
   all start with hope in every heart.     Someday at Christmas..             

-|--10------10--8------8------8---7---------5-----------7---7-7-7-7------5----
-|--10------10--10-----8------8---8---------5-----------7---7-7-7-7------3----
-|--10------10--9------8------8---7---------5---------------7-7-7-7------4----
-|------------------------------------------7----------------------------5----
-|----------------------------------------------------------------------------
-|----------------------------------------------------------------------------
                                        someday at Christmas time. .. someday 

-|--------7---7-7-7-----------------------------------------------------------
-|--------7---7-7-7-----------------------------------------------------------
-|--------7---7-7-7--0--------------------------------------------------------
-|-------------------0--------------------------------------------------------
-|-------------------x--------------------------------------------------------
-|-------------------3--------------------------------------------------------
   at Christmas     time..                                                    

-|-------------------7---8-7-6-7--8--9--10---\--------------------------------
-|----------------------------------------------------------------------------
-|-------------------4---5-4-3-4--5--6--7----\--------------------------------
-|----------------------------------------------------------------------------
-|----------------------------------------------------------------------------
-|----------------------------------------------------------------------------
  G2                                                                          
00:00 / 00:00
Outros vídeos desta música
Repetir
Outros vídeos desta música
Composição de Jackson Five
Colaboração e revisão:
  • izauro souza
4.058 exibições
    • ½ Tom
    • A
    • Bb
    • B
    • C
    • Db
    • D
    • Eb
    • E
    • F
    • F#
    • G
    • Ab
  • Adicionar à lista

    0 comentários

    Ver todos os comentários

    Conseguiu tocar?

    0 Tocaram 0 Ainda não

    Grave um vídeo tocando Someday At Christmas e nos envie!

    Entre para oCifra Club PRO

    Tenha acesso a benefícios exclusivos no App e no Site

    • Chega de anúncios

    • Prioridade de compra em lançamentos

    • Mais recursos no app do Afinador

    • Atendimento Prioritário

    • Descontos nos produtos Cifra Club

    • Ajude a produzir mais conteúdo

    00:00 / 00:00

    Cifra Club Pro

    Aproveite o Cifra Club com benefícios exclusivos e sem anúncios
    Cifra Club Pro
    Aproveite o Cifra Club com benefícios exclusivos e sem anúncios
    OK