Cifra Club

Aprenda

State Of Love And Trust

Pearl Jam

Cifra: Principal (violão e guitarra)
Tom: C
[Intro] F  Am  F  Am
        F  Am  F  Am
        F  Am  F  Am

F                     Am
  State of love and trust as I 
F         Am
  Busted down the pretext 
F             Am
  Sin still plays and preaches 
        F             Am
But to have an empty court ah ah
F          Am
  And the sings are passin'
F            Am
  Grip the wheel can't read it 
F       Am                  F
  Sacrifice receiving the smell that's on 
    Am
My hands hands hands 

F        Am   C         G               Am
  And I listen for the voice inside my head 
 B5           C             D
Nothin' I'll do this one myself 

F          Am
  Lay her down as prist does 
F             Am
  Should the Lord be a countin'
F         Am
  Will be in my honour 
         F               Am
Make it pain painfully quick ah ha 
F       Am
  Promises are whispered 
F        Am
  In the age of darkness 
F          Am
  Want to be enlightened
        F                  Am
Like I want to be told the end end end 

F          Am          C
  And the barrel shakes 
     G            Am
A directly at my head 
    B5       C              D
Oh help me, help me from myself 
F        Am    C          G               Am
  And I listen   for the voice inside my head 
 G/B          C           D
Nothin' I'll do this one myself 

( F Am  F  Am  F  Am  F  Am )

    F             Am
E|-3h5-5-5-5-3-0---------------------|
B|---------------5~--5-5-5-5-3-1-0---|
G|-----------------------------------| (3x)
D|-----------------------------------|
A|-----------------------------------|
E|-----------------------------------|

    F             Am
E|-----------------------------------|
B|-1-1-1-1-1-1-1-0---1-1-1-1-1-1-----|
G|-----------------------------------|
D|-----------------------------------|
A|-----------------------------------|
E|-----------------------------------|

    F             Am
E|-3h5-5-5-5-3-0---------------------|
B|---------------5~--5-5-5-5-3-1-0---|
G|-----------------------------------| (3x)
D|-----------------------------------|
A|-----------------------------------|
E|-----------------------------------|

    F             Am
E|-----------------------------------|
B|-1-1-1-1-1-1-1-0---1-1-1-1-1-1-----|
G|-----------------------------------|
D|-----------------------------------|
A|-----------------------------------|
E|-----------------------------------|

 F             Am
Hey na na na that's something 
 F             Am
Hey na na na that's something 
 F             Am
Hey na na na that's something 
   F              Am
I wanna back it away ah ha 

F        Am    C          G               Am
  And I listen   for the voice inside my head 
 B5           C             D
Nothin' I'll do this one myself 
F          Am             C
  And the barrel waits, trigger shakes 
G                  Am
Aimed right at my head 
           G/B      C        D
Won't you help me, help me from myself 

[Solo] F  Am  C  G  Am  B5  C  D
       F  Am  C  G  Am  G/B  C  D

F                     Am
  State of love and trust and a 
F                     Am
  State of love and trust and a 
F                     Am
  State of love and trust and a 
F                   Am
  State of love and

[Final] F  Am  F  Am
        F  Am  F  Am
Composição de Eddie Vedder / Jeff Ament / Mike McCready
Colaboração e revisão:
115.722 exibições
    • ½ Tom
    • A
    • Bb
    • B
    • C
    • Db
    • D
    • Eb
    • E
    • F
    • F#
    • G
    • Ab
  • Adicionar à lista

    0 comentários

    Mostrar mais comentários

    Conseguiu tocar?

    18 Tocaram 1 Ainda não

    Grave um vídeo tocando State Of Love And Trust e mande pra gente!

    00:00 / 00:00
    outros vídeos desta música
    repetir qualidade Automático
    Outros vídeos desta música
    00:00 / 00:00
    Automático

    Cifra Club Pro

    Aproveite o Cifra Club com benefícios exclusivos e sem anúncios
    7 dias grátis
    Cifra Club Pro
    Aproveite o Cifra Club com benefícios exclusivos e sem anúncios
    7 dias grátis
    OK