Cifra Club

Aprenda

Pampa Livre

Pedro Ortaça

Cifra: Principal (violão e guitarra)
tom: G
Intro:
E|-12-12-10-10--7-7-5-5-|-10-10-7-7--5-5-3-3-|------------------------------|------------|
B|----------------------|--------------------|-------5----------------------|-3-5-7--7-8-|
G|-12-12-11-11--7-7-5-5-|-11-11-7-7--5-5-4-4-|-5-7-5---7-5-4----------------|------------|
D|----------------------|--------------------|---------------7-5-4----------|-4-5-7--7-9-|
A|----------------------|--------------------|---------------------7-5--5--5|------------|
E|----------------------|--------------------|------------------------------|------------|

Solo:
E|----------------|
B|----------------|
G|-7-5-4----------|
D|--------7-5-4-5-|
A|-9-7-5----------|
E|--------9-7-5-7-|

(Intro)

G              D                      G
Mandei patas na distância; por vezes me demorei
               D                       G
Na volta juntei sementes das terras por onde andei
G7           C         D        (Solo) G
Semeando com liberdaaade sempre colho o que plantei
            D                             G
No povo de cada um que se igualem as bandeiras
                 D                      G
Em mala suerte comum existem causas parceiras
G7           C         D  (Solo) G
Se o homem acha o caminho, a estrada é companheira

Refrão:
    B7           Em         D            G       G7
(Não paro, tenho pressa, eu ando abrindo porteiras
C             G       D            G          G7
Os horizontes nativos irmanaram as fronteiras              
C             G       D                     G
Os horizontes nativos irmanaram as fronteiras)

(repete intro)

G                  D                      G
Yerba mala sempre existe para sugar cosas buenas
              D                             G
Hay que ter sabedoria, mão firme e ideia serena
G7           C         D          (Solo) G
E gana de potro alçado para roper las cadenas
              D                             G
E quando redescobrirmos nosotros como pampeanos
                    D                     G
De pronto a fome desmama do subemprego tirano
G7           C      D                (Solo) G
Arrimo de três países que tienen hijos hermanos

Refrão:
     B7           Em         D            G       G7
(Não paro, tenho pressa, eu ando abrindo porteiras
C             G       D            G          G7
Os horizontes nativos irmanaram as fronteiras            
C             G       D                       G
Os horizontes nativos irmanaram as fronteiras)

final 2x: G  C  D
Composição de Pedro Ortaça
Colaboração e revisão:
  • Sandro Eduardo
950 exibições
    • ½ Tom
    • A
    • Bb
    • B
    • C
    • Db
    • D
    • Eb
    • E
    • F
    • F#
    • G
    • Ab
  • Adicionar à lista

    0 comentários

    Ver todos os comentários

    Conseguiu tocar?

    1 Tocaram 0 Ainda não

    Grave um vídeo tocando Pampa Livre e nos envie!

    00:00 / 00:00
    Outros vídeos desta música
    Repetir Qualidade Automático
    Outros vídeos desta música
    00:00 / 00:00
    Automático

    Cifra Club Pro

    Aproveite o Cifra Club com benefícios exclusivos e sem anúncios
    Cifra Club Pro
    Aproveite o Cifra Club com benefícios exclusivos e sem anúncios
    OK