Notificações Amigos pendentes

      Pedro Paulo e Alex

      Fama de Pegador

      106.196 exibições
      Tom: G
      Intro: Em  C  G  D5(9)
      ooooo oooooo
      
       solo intro.
      
      --11--8----------------------
      ---------9--11--9---------9--
      -------------------8--10-----
      -----------------------------
      -----------------------------
      -----------------------------
      
      
      solo sanfona
      
      
      ------8-8--9--8--------------------------------8-8--9--8----
      ----------------11--9--8--9--11--9--8--9-----------------11-
      -1010--------------------------------------88---------------
      ------------------------------------------------------------
      ------------------------------------------------------------
      ------------------------------------------------------------
      
      
      Em             C                 G
      Os playba mete bala, se isola na balada
                   D5(9)                         Em
      Com whisky na taça acha que pira a mulherada
                    C                  G
      Pagando de gatão, mais não pega nada
                  D5(9)                     Em
      E eu lá na humilde curtindo com altas gatas
                      C                       G
      Eu não sou duas caras, eu não tenho dinheiro
                        D5(9)                      Em
      Fim de noite acompanhado eu vo pra casa, eu to faceiro
                     C                           G
      Eu não sou herdeiro, mais sou bom no converseiro
                D5(9)                      C  D5(9)
      E mesmo a pé tem muita mulher no meu pé
                         Em
      A noite inteiraaa
      
      Refrão:
                         C                   G
       N
      ão tenho dodge ram, nem camaro amarelo
                   D5(9)                     Em
      Eu pego as gatinhas do xaveco e no chinelo
                    C                  G
      Sou conquistador, na balada um terror
                     D5(9)               Em
      Pedro paulo e alex tem fama de pegador
              C         G
      Ooooooooo oooooooo
      D5(9)           Em
      Tem fama de pegador
              C         G    D5(9)    Em
      Ooooooooo oooooooo
        Composição: Mario MagalhãesColaboração e revisão:
        • Danilo
        • fabiopezao
        • williamlifer
        • lukervetor

        Comentários 2

        140 .
        • sexta sexta: Em 20/05/2016 18:40

          E a tonalidade não bate também, esse solo mesmo a escala e G#, mas só por um capotraste na primeira casa e fica chuchu beleza kkkkkkk abr

        • Alan Alan: Em 22/07/2015 19:45

          Ta errado o solo do começo, o certo é:

          --11--8-------------------------9--
          ---------9--11--9-----------------8
          -------------------8--10----

        140 cancelar

        conseguiu tocar?

        • •••

        covers

        Grave um vídeo tocando Fama de Pegador e mande pra gente!

        Ex.: http://www.youtube.com/watch?v=0IvSvIwGdwk
        ver covers de outras músicas »
        0:00 / 0:00

        Capítulos

          1 versão de violão dificuldade exibições contribuição e correção
          1 versão de guitarra dificuldade exibições contribuição e correção
          1 versão de cavaco dificuldade exibições contribuição e correção
          1 versão de teclado dificuldade exibições contribuição e correção
          play/pausefechar subir/descer velocidade
          6ª corda E5ª corda A4ª corda D3ª corda G2ª corda B1ª corda E
            acordes
            publicidade
            fechar
            ok