Miedo

Pepe Aguilar

Composição de: Fato
tom: F Afinação: E A D G B E
E|-3---1---0-----------0---1---3---1---0---------|
B|-------------3---3-----------------------3---3-|
G|-----------------------------------------------|
D|-----------------------------------------------|
A|-----------------------------------------------|
E|-----------------------------------------------|

Esto se repite como 8 veces y despues:

E|-3---1---0-----------0---1---3---1---0---------|
B|-------------1---1-----------------------1---1-|
G|-----------------------------------------------|
D|-----------------------------------------------|
A|-----------------------------------------------|
E|-----------------------------------------------|

y esto se repite como 12 veces, pero entra en la
6ta vez:

E|-------8-8---6-5-3---3---1---0-----------0---1-|
B|--6/8----------------------------1---1---------|
G|-----------------------------------------------|
D|-----------------------------------------------|
A|-----------------------------------------------|
E|-----------------------------------------------|

Despues continua las otras 6 veces mas o menos.

Es la primera vez que colaboro y ya he utilizado
muchas canciones de aqui, espero que si lo publiquen
y que les guste esta cancion tanto como a mi.
GRACIAS!!!
Página 1 / 1

Letras e título
Acordes e artista

resetar configurações
OK