Cifra Club

Left To My Own Devices

Pet Shop Boys

Tab de baixo: Principal
[Intro]

G|--------------------------------------------------------------------------|
D|--------------------------------------------------------------------------|
A|---------------------5-3-2-0-33-0-----------------------------------------|
E|--5-3-2-0-33-0------------------------------------------------------------|

[Verso]

G|--------------------------------------------------------------------------|
D|--------------------------------------------------------------------------|
A|---------------------5-3-2-0-33-0-----------------------------------------|
E|--5-3-2-0-33-0------------------------------------------------------------|

[Refrão]

G|--------------------------------------------------------------------------|
D|--------------------------------------------------------------------------|
A|--------------------------------------------------------33333333-55555555-|
E|--55555555-55555555-77777777-77777777-00000000-00000000-------------------|

G|--------------------------------------------------------------------------|
D|--------------------------------------------------------------------------|
A|--------------------------------------------------------------------------|
E|--55555555----------------------------------------------------------------|

[Verso]

G|--------------------------------------------------------------------------|
D|--------------------------------------------------------------------------|
A|---------------------5-3-2-0-33-0-----------------------------------------|
E|--5-3-2-0-33-0------------------------------------------------------------|

[Refrão]  

G|--------------------------------------------------------------------------|
D|--------------------------------------------------------------------------|
A|--------------------------------------------------------33333333-55555555-|
E|--55555555-55555555-77777777-77777777-00000000-00000000-------------------|

G|--------------------------------------------------------------------------|
D|--------------------------------------------------------------------------|
A|-----------33333333-55555555----------------------------------------------|
E|--55555555----------------------------------------------------------------|

[Ponte]

G|--------------------------------------------------------------------------|
D|--------------------------------------------------------------------------|
A|--------------------------------------------------------------------------|
E|--5555-7777-88888888------------------------------------------------------|

[Refrão]

G|--------------------------------------------------------------------------|
D|--------------------------------------------------------------------------|
A|--------------------------------------------------------33333333-55555555-|
E|--55555555-55555555-77777777-77777777-00000000-00000000-------------------|

G|--------------------------------------------------------------------------|
D|--------------------------------------------------------------------------|
A|--------------------------------------------------------33333333-55555555-|
E|--55555555-55555555-77777777-77777777-00000000-00000000-------------------|

G|--------------------------------------------------------------------------|
D|--------------------------------------------------------------------------|
A|--------------------33333333-55555555-------------------33333333-55555555-|
E|--55555555-55555555-------------------55555555-55555555-------------------|

[Final]

G|--------------------------------------------------------------------------|
D|--------------------------------------------------------------------------|
A|--------------------------------------------------------------------------|
E|--5-----------------------------------------------------------------------|
00:00 / 00:00
Outros vídeos desta música
Repetir
Outros vídeos desta música
Composição de Chris Lowe / Neil Tennant
Colaboração e revisão:
  • Denilson SANTOS
45 exibições

0 comentários

Ver todos os comentários

Conseguiu tocar?

1 Tocaram 0 Ainda não

Grave um vídeo tocando Left To My Own Devices e nos envie!

Entre para oCifra Club PRO

Tenha acesso a benefícios exclusivos no App e no Site

  • Chega de anúncios

  • Prioridade de compra em lançamentos

  • Mais recursos no app do Afinador

  • Atendimento Prioritário

  • Descontos nos produtos Cifra Club

  • Ajude a produzir mais conteúdo

00:00 / 00:00

Cifra Club Pro

Aproveite o Cifra Club com benefícios exclusivos e sem anúncios
Cifra Club Pro
Aproveite o Cifra Club com benefícios exclusivos e sem anúncios
OK