Cifra Club

Aprenda

Bush Doctor

Peter Tosh

Tab de baixo: Principal
Intro:

G|-----------------------|      G|--------------------------| 
D|---5-4-----------------|      D|---------------7----------| 
A|-7----7---------3-5-7--|  2x  A|-3-5-7----3--5--5-777-77--| 
E|--7-----7----5-7-------|      E|---------------------7----|
 
Versos:

G|----------------------------------------| 
D|----5-4------5-4---------------5-4------| 
A|--7-----7---7----7-------3--5-------7---| 
E|--7-----7---7----7-----3--5--7----------| 

Refrão:

G|-----------7--------------------| 
D|-----5--4-7---------------------| 
A|--2-5--5-----7----7-5--7-5------| 
E|-3-------------------7-----7----|
Composição de Peter Tosh
Colaboração e revisão:
  • Everton Damascena
1.519 exibições

0 comentários

Ver todos os comentários

Conseguiu tocar?

0 Tocaram 0 Ainda não

Grave um vídeo tocando Bush Doctor e nos envie!

00:00 / 00:00
Outros vídeos desta música
Repetir Qualidade Automático
Outros vídeos desta música
00:00 / 00:00
Automático

Cifra Club Pro

Aproveite o Cifra Club com benefícios exclusivos e sem anúncios
Cifra Club Pro
Aproveite o Cifra Club com benefícios exclusivos e sem anúncios
OK