Feel No Way

Peter Tosh

Composição de: Peter Tosh
"Nobody feel no way" 
G|----------------------------------------------| 
D|------------2-----2----------------------2----| 
A|--5-5-2---------5-----3-3-3-2-3-3-3---------5-| 
E|--------5-3---------3---------------3---------| 

Pre-Refrão:

"Can I plant peas and reap rice" 
G|---------------------------------------------------------------------------| 
D|----5-7-5-------7-9-7-------5-7-5-------7-9-7-------5-7-5-------7-9-7------| 
A|--8-------8--10-------10--8-------8--10-------10--8-------8--10-------10---| 
E|---------------------------------------------------------------------------| 

G|-----------------------------------------| 
D|----5-7-5--------------------------------| 
A|--8-------8---5--5--5--5----5-5-5-2------| 
E|------------------------------------5-3--| 
Página 1 / 1

Letras e título
Acordes e artista

resetar configurações
OK