Cifra Club

Aprenda

Legalize It

Peter Tosh

Tab de baixo: Principal
G|---------------------------------|---------------------------------|
D|---------------------------------|---------------------------------|
A|-------------------------0---3---|---------------------------------|
E|-3---3-----------1---1-----------|-3---3---3-------1---1---1-------|

                                 ou

G|------------------------------------------------|  
D|-4-4-4-4---------4-4----------------------------| 
A|---------4-4-4-8-----4-8------------------------|  
E|------------------------------------------------|
Composição de Peter Tosh
Colaboração e revisão:
  • Everton Damascena
311 exibições

0 comentários

Ver todos os comentários

Conseguiu tocar?

0 Tocaram 0 Ainda não

Grave um vídeo tocando Legalize It e nos envie!

00:00 / 00:00
Outros vídeos desta música
Repetir Qualidade Automático
Outros vídeos desta música
00:00 / 00:00
Automático

Cifra Club Pro

Aproveite o Cifra Club com benefícios exclusivos e sem anúncios
Cifra Club Pro
Aproveite o Cifra Club com benefícios exclusivos e sem anúncios
OK