Mama Dog

Peter Tosh

Composição de: Elvira/Rogério
G|--------------------|------------------|------------------| 
D|---6-6-----6-6------|------------------|----6-6------6-6--| 
A|-------8-6-----8-6-4|------------------|-6--------6-------| 
E|--------------------|--------6-4-3-----|------------------| 


G|--------------------|------------------|------------------| 
D|---6-6-----6-6------|------------------|------------------| 
A|-6-----8-6-----8-6-4|------------------|--------8-6-8---6-| 
E|--------------------|--------6-4-3-----|------------------|
Página 1 / 1

Letras e título
Acordes e artista

resetar configurações
OK