Cifra Club

Aprenda

No Goa Jail

Peter Tosh

Tab de baixo: Principal
intro  
G|---------------------------| 
D|---------------------------| 
A|---------------------------| 
E|-3-------3-------3-------3-| 

G|----------------------------| 
D|----------------------------| 
A|----------3-------5---3-----| 
E|------3-------3-----------3-| 

chorus 
G|--------------------------------------------------| 
D|----5-----------55-55--------------------5--------| 
A|-575---5753--575------3-5---3-2-------575---575---| 
E|--------------------------------5-3-------------3-| 

G|--------------------------------------------------| 
D|----5-----------55-55--------------------5--------| 
A|-575---5753--575------3-5---3-2-------575---575---| 
E|--------------------------------5-3-------------3-| 

verse 
G|---------------------------------------------------| 
D|---------------------------------------------------| 
A|------3-2-0--2---25-3-2--3---37-5-3---5-5-5--5-5-5-| 
E|-5-0-5---------2-----------3---------5---5--5---5--| 

G|--------------------------------------------------------------| 
D|------------------------------------------------7-------------| 
A|------3-2-0--2---25-3-2--3---37-5-3---5-5-5--5-5-5---5-5-5-5--| 
E|-5-0-5---------2-----------3---------5---5--5-------5---5---5-|
Compositor não encontrado.
Colaboração e revisão:
  • Everton Damascena
130 exibições

0 comentários

Ver todos os comentários

Conseguiu tocar?

0 Tocaram 0 Ainda não

Grave um vídeo tocando No Goa Jail e nos envie!

00:00 / 00:00
Outros vídeos desta música
Repetir Qualidade Automático
Outros vídeos desta música
00:00 / 00:00
Automático

Cifra Club Pro

Aproveite o Cifra Club com benefícios exclusivos e sem anúncios
Cifra Club Pro
Aproveite o Cifra Club com benefícios exclusivos e sem anúncios
OK