Cifra Club

Aprenda

Watcha Gonna do

Peter Tosh

Tab de baixo: Principal
Intro: 
           
G|----------| 
D|.-3------.| 2x
A|.---3---3.| 
E|-----3----| 

G|-------0-1-0--------------0-1-0-------------| 
D|.-----2------------------2-----------------.| 
A|.3--3---------3-3----3-3---------3-------3-.| 
E|----------------------------------3-3-3-----|
Composição de Minha Mãe
Colaboração e revisão:
  • Everton Damascena
302 exibições

0 comentários

Ver todos os comentários

Conseguiu tocar?

0 Tocaram 0 Ainda não

Grave um vídeo tocando Watcha Gonna do e nos envie!

00:00 / 00:00
Outros vídeos desta música
Repetir Qualidade Automático
Outros vídeos desta música
00:00 / 00:00
Automático

Cifra Club Pro

Aproveite o Cifra Club com benefícios exclusivos e sem anúncios
Cifra Club Pro
Aproveite o Cifra Club com benefícios exclusivos e sem anúncios
OK