Name

Pfr

tom: Afinação:
Transcribed by: jed carson
Email: *


Chorus
(fuzz on)
------------------------------------------------------------------------------
------------------------------------------------------2-2-2-2-2-2-2-2---------
-----------0-0-0-0-----------0---2-----------0-0-0-0--------------------------
--2-2-2-2-----------2-2-2-2---------2-2-2-2-----------------------------------



------------------------------------------------------------------------------
------------------------------------------------------------------------------
-----------0-0-0-0-----------0-2-0----0--2------------------------------------
--2-2-2-2-----------2-2-2-2---------------------------------------------------


Verse 2, second half
(fuzz off)
------------------------------------------------------------------------------
--2-2-2-2--------------------1-1-1-1------------------------------------------
-----------3-3-3-3--2-2-2-2---------------------------------------------------
------------------------------------------------------------------------------

Pre                                                                                (fuzz on)
------------------------------------------------------------------------------
---------------------------------------------------------------/12-12-12-12---
-----------3-3-3-3--0-0-0-0-0-0-0-0--3-3-3-3-3-3-3-3--5-5-5-5-----------------
--3-3-3-3---------------------------------------------------------------------


Solo
(fuzz on)
------------------------------------------------------------------------------
------------------------------------------------------------------------------
--4-4-4-4-4-4-4-4-------------------5-5-5-5-5-4-3-2-2--2-1-0------------------
-------------------2-2-2-2-2-2-2-2---------------------------4----------------

------------------------------------------------------------------------------
------------------------------------------------------------------------------
-----------------5-5-5-5-5-5-5-5----------------------------------------------
--4-4-4-4-4-4-4---------------------------------------------------------------

Interlude1

(fuzz on)
                                   *  2.......
-------------------------------------|----------------------------------------
---------------------------6---------|----------------------------------------
-6-7-6-7--9-7-6-7--6-7-6-7---9-7-6---|--4-------------------------------------
-------------------------------------|----------------------------------------

Interlude2

(fuzz on)
------------------------------------------------------------------------------
------------------------------------------------------------------------------
----------------------0--------7--6-6--4-4-4-4-4-------------------------
--2----2----2----2------------------------------------------------------------
Intro 1x
Verse 2x

Pre Chorus1 1x
Chorus1 1x bass in
Interlude1 1x
Verse 2x bass out
Pre Chorus2 1x
Verse 2x bass in
Pre Chorus1 1x
Chorus1 1x
Solo 1x
Interlude2 1x
Chorus1 2x
Chorus2 1x
Octave Outro 1x
Página 1 / 1

Letras e título
Acordes e artista

resetar configurações
OK