Cifra Club

Aprenda

Por Toda Vida Você / Vai Ficar Em Mim (Pout-Pourri)

PH e Michel

Cifra: Principal (violão e guitarra)
Tom: G
[Intro] G  D  C  D

[Solo]
 
E|-----3-3------3-3------5-5--------5-5-----|
B|-1p3-------1p3------1p3--------1p3------3-|
G|------------------------------------------|
D|------------------------------------------|
A|------------------------------------------|
E|------------------------------------------|

E|---5p7-8-7-5-3---3-5h7--8-7-5-------------|
B|---------------5--------------------------|
G|------------------------------------------|
D|------------------------------------------|
A|------------------------------------------|
E|------------------------------------------|

E|-----3-3------3-3------5-5--------5-5-----|
B|-1p3-------1p3------1p3--------1p3------3-|
G|------------------------------------------|
D|------------------------------------------|
A|------------------------------------------|
E|------------------------------------------|

E|----5p7-8-7-5-3-----3-12-10-8-10-8-7-5----|
B|----------------5-3-----------------------|
G|------------------------------------------|
D|------------------------------------------|
A|------------------------------------------|
E|------------------------------------------|

[Primeira Parte]

      G
Só consigo pensar em você
      Bm 
Tá demais em mim essa paixão
          C                    Am 
Os meus olhos só querem te ver
      D
Você mora no meu coração

[Segunda Parte]

        G             
É uma pena que você não queira
    Bm 
Dividir comigo esse amor
        C                          Am7
Mas eu não desisto assim tão fácil
     D
De você

[Terceira Parte]

        G           
Se me toca, eu te beijo
    D          
É tanto desejo
C                D
Não vejo outra saída

[Pré-refrão]

    G
Eu te amo, te quero
     D           C
Te sinto, te espero
           D
Por toda vida

[Refrão]

            G
Ficar sem você é saudade demais
                 Bm 
Sem os seus carinhos não vivo jamais
             Am                      C
Se você soubesse o quanto eu te quero
           D
Ficaria comigo
           G
Por toda vida

( C  G  Am  F  C )

[Solo]

E|-------------------/13-13-12-12---------| /13-13-12-12----------|
B|-0-1-3--0-1-3--0-1------15-15-13-12-13--1h3-0-1--3---1-15-15-13-|
G|--------------------------------------0-------------------------|
D|----------------------------------------------------------------|
A|----------------------------------------------------------------|
E|----------------------------------------------------------------|

[Primeira Parte]

                   G    Am
Você vai ficar em mim, pode crer
        F           C
Não dá pra esquecer
                   G
Um amor tão forte assim
Am               F
Quando vem, faz a gente se perde

[Pré-refrão]

Dm                 G  F  Dm 
   Faz o coração doer
                 G
Faz a gente enlouquece

[Refrão]

       C                    Am 
Eu só sei fazer amor te chamando
               F
Gritando seu nome
       Dm     G
Eu só sei te amar

        C                   Am
Sinto falta de você quando some
             F
A dor me consome
   Am                        G 
Eu sei que nunca mais te esqueço
       Dm                  G
Pois basta fechar os meus olho
            C
Pra te lembrar

( Am )

       F                G
Pois basta fechar os meus olho
          F/C
Pra te lembrar

( Am )

       F                G
Pois basta fechar os meus olho
          
Pra te lembrar

( G  F  C )
Composição de Jairo Goes / Rivanil / Everton Matos / Cristiano Araújo
Colaboração e revisão:
  • Adriele Souza
18 exibições
    • ½ Tom
    • A
    • Bb
    • B
    • C
    • Db
    • D
    • Eb
    • E
    • F
    • F#
    • G
    • Ab
  • Adicionar à lista

    0 comentários

    Mostrar mais comentários

    Conseguiu tocar?

    0 Tocaram 0 Ainda não

    Grave um vídeo tocando Por Toda Vida Você / Vai Ficar Em Mim (Pout-Pourri) e mande pra gente!

    00:00 / 00:00
    outros vídeos desta música
    repetir qualidade Automático
    Outros vídeos desta música
    00:00 / 00:00
    Automático

    Cifra Club Pro

    Aproveite o Cifra Club com benefícios exclusivos e sem anúncios
    7 dias grátis
    Cifra Club Pro
    Aproveite o Cifra Club com benefícios exclusivos e sem anúncios
    7 dias grátis
    OK