Cifra Club

Rei Criador

Pib de Curitiba

Cifra: Principal
exibições 3.548
Tom: D
e|------2-3-2-------------3/5----------------------------------------
B|3-5--------5-3-2-3-2------------7-8-7------------7/10--------------
G|-----------------------------7-9--------9-7-6-7-6------------------
D|-------------------------------------------------------------------
A|-------------------------------------------------------------------
E|-------------------------------------------------------------------   
Base D G D G|----D G Bm Em G

D
Tu fizeste os montes e o mar,
                     F#m Em G     
Criaste o Universo e também a mim.
Em               G              A
Voz que fez, do nada o mundo aparecer,
Em      G           A
E agora vem meu coração encher
G    A     D   (entrada do baixo)
Meu rei criador.

Solo -> D G D G
        D G Bm Em G

D              D/G      D        D/G
Tu fizeste os vales e o céu,
       D                 D/G       
Meus olhos viram o Teu grande amor
    F#m Em G     
mostrado a mim.
Em             G            A        
Ajustaste o amanhecer e os astros também.
Em         G         A
Pelo nome cada um conheces bem 
G    A      D (crescendo)
Meu Rei criador.

Bm        G D    A                    Em   (/F#)  G
Quem sou eu, que Te preocupas tanto assim.
Bm       G D        A               Em        G
Quem sou eu, tanto amor tens dado a mim.
     A      D
Meu Rei criador.

Solo D G D G
    D G Bm Em G

D (suave)
Tu fizeste as trevas e a luz,
D                      F#m Em G     
Sol e lua para a terra iluminar.
Em               G            A
As mãos que estenderam todo céu sem fim,
Em                 G        A
são as mesmas que hoje vem cuidar de mim.
G    A      D  (crescendo)
Meu Rei Criador.

Bm        G D            A           Em (Bm C#m D Em)
Quem sou eu, que Te preocupas tanto assim.
Bm       G  D        A              Em        G
Quem sou eu, tanto amor tens dado a mim.
Bm         G D           A          Em (Bm C#m D Em)
Quem sou eu, que Te preocupas tanto assim.
Bm       G D        A               Em      (/F#)  G
Quem sou eu, tanto amor tens dado a mim.
     A      D
Meu Rei criador.

Solo D G D G
        D G Bm Em G 

Solo baixo
G|---------------------------------------------------------
D|-------4-5-4-------------------4-5-4---------------
A|--5-7-------7-5-4-5-4-----5-7--------7-5-4-5-4----
E|-----------------------5-----------------------5-

Ordem dos solos
1-  Violão principal/guitarra
2-  Violão principal/guitarra + Baixo
3- Vozes - violão principal - fim com baixo
Acordes para:
    Composição: Mary macleanColaboração e revisão:
    • Luana Paulichen

    0 comentários

      mostrar mais comentários

      Conseguiu tocar?

      0tocaram0ainda não

      Grave um vídeo tocando Rei Criador e mande pra gente!

      00:00 / 00:00
      outros vídeos desta música
      repetirqualidadeautomática
      Outro vídeos desta música
        00:00 / 00:00
        automática
        OK