Cifra Club

Música Pica Pau

Pica Pau

Cifra: Principal
exibições 76.494
Tom: C
Primeira parte
e|---7--10--7----7-10--7--10-7--10-7-8-10-8-7---------
B|--8-----------8------------------------------10-8---
G|-7-----------7--------------------------------------

Segunda parte
e|---7--10--7----7-10--7--10-7--10-7-8-10-8-7-----10--
B|--8-----------8------------------------------10-----
G|-7-----------7--------------------------------------

Terceira Parte
e|-10-11-12-11-12-8--8-10-11-10-11-8--7-8-10-10-7-----
B|------------------------------------------------8-7-
G|----------------------------------------------------

Parte Final (Igual a Primeira)
e|---7--10--7----7-10--7--10-7--10-7-8-10-8-7---------
B|--8-----------8------------------------------10-8---
G|-7-----------7--------------------------------------
Acordes para:
    Colaboração e revisão:
    • Francisco Oliveira

    0 comentários

      mostrar mais comentários

      Conseguiu tocar?

      25tocaram0ainda não

      Grave um vídeo tocando Música Pica Pau e mande pra gente!

      00:00 / 00:00
      outros vídeos desta música
      repetirqualidadeautomática
      Outro vídeos desta música
        00:00 / 00:00
        automática
        OK