Manchuria

Pinback

Composição de: Pinback
tom: C Afinação: E A D G B E
Tabbed by: Matty C
Email: H*

Tuning: Standard EADGBE

Intro and Verses
"They sent us into their machine"
   Am  G Am Em G
e|--5--3--5--0-3-----------------------------------|
B|--5--3--5--0-3-----------------------------------|
G|--5--4--5--0-4-----------------------------------|
D|--7--5--7--2-5-----------------------------------|
A|--7--5--7--2-5-----------------------------------|
E|--5--3--5--0-3-----------------------------------|

Chorus
    F Dm Am  C   C
e|--1--5--5--0---0---------------------------------|
B|--1--6--5--1---1---------------------------------|
G|--2--7--5--0---0---------------------------------|
D|--3--7--7--2---2---------------------------------|
A|--3--5--7--3-2-3-2-------------------------------|
E|--1-----5----------------------------------------|

Bridge
"Stay up, all night"
   Am Bm  C   F
e|--5--7--8---8------------------------------------|
B|--5--7--8---10-----------------------------------|
G|--5--7--9---10-----------------------------------|
D|--7--9--10--10-----------------------------------|
A|--7--9--10--8------------------------------------|
E|--5--7--8----------------------------------------|

Outro
   Dm Am
e|--5--5-------------------------------------------|
B|--6--5-------------------------------------------|
G|--7--5-------------------------------------------|
D|--7--7-------------------------------------------|
A|--5--7-------------------------------------------|
E|-----5-------------------------------------------|

End on
    F
e|--1----------------------------------------------|
B|--1----------------------------------------------|
G|--2----------------------------------------------|
D|--3----------------------------------------------|
A|--3----------------------------------------------|
E|--1----------------------------------------------|


Questions, comments, compliments, or corrections send to H*
Matty C 
Página 1 / 1

Letras e título
Acordes e artista

resetar configurações
OK