Cifra Club

Comfortably Numb

Pink Floyd

Tab de baixo: Principal
exibições 57.213
Intro: somente dois compassos baixo e banda.

G|----------------------------------------------------|
D|----------------------------------------------------|
A|----------------------------------------------------|
E|-7---7-7--7--7--------------------------------------|

Hello is there anybody in there?

Primeira parte tocar tab 3x

G|----------------------------------------------------|
D|----------------------------------------------------|
A|----------------------------------------------------|
E|-7--7-7--5--5--3-2-0--7--7--------------------------|

There is no pain you are receding...

G|----------------------------------------------------|
D|----------------------------------------------------|
A|-5—-5\----5--5\----2-3-3---2-3-3--------------------|
E|--------5--------5-------3-------3-3----------------|

G|----------------------------------------------------|
D|------------------------------------5---------------|
A|-5—-5\----5--5\----2-3-3---2-3-3----------2-3---5-5-|
E|--------5--------5-------3-------3----5-5-----3-----|

Solo Guitarra

G|----------------------------------------------------|
D|----------------------------------------------------|
A|-5—5--------0-2/4-5--5------------------------------|
E|----5--5-5-------------5--5-5-----------------------|

G|----------------------------------------------------|
D|------------------5---------------------------------|
A|-2-3—3-3----5---5---3-3------------2-3-3h5---5--5-5-|
E|----------3---3---------3--3-3-5-5---------3--------|

Segunda parte verso 2x- O.K. Just a little pinprick

G|----------------------------------------------------|
D|----------------------------------------------------|
A|----------------------------------------------------|
E|-7--7-7--5--5--3-2-0--7--7--------------------------|

segunda parte - There is no pain, you are receding

G|----------------------------------------------------|
D|----------------------------------------------------|
A|-5—-5\----5--5\----2-3-3-3h5--------2-3-3--3h5------|
E|--------5--------5-----------3---3-------------3-3--|

G|----------------------------------------------------|
D|----------------------------------------------------|
A|-5—-5\----5--5\----2-3--3h5----2-3-3----------------|
E|--------5--------5----------3--------3-3------------|

G|----------------------------------------------------|
D|---7------------------------------------------------|
A|-----2-3---5-5-5-5-5-5-5\---------------------------|
E|-5-------3------------------------------------------|

Solo guitarra final - Até o final com Fayd-Out

G|----------------------------------------------------|
D|----------------------------------------------------|
A|----------------------------5-----------------------|
E|-7—-7--5--5---3-2-0--7--7-7---7---------------------|

G|----------------------------------------------------|
D|----------------------------------------------------|
A|----------------------------------------------------|
E|-7—-7--5--5-5---3-2-0--7--7-7-----------------------|

G|----------------------------------------------------|
D|----------------------------------------------------|
A|----------------------------------------------------|
E|-7—-7-7-6—5--5-5---3-2-0--7--7----------------------|

G|----------------------------------------------------|
D|----------------------------------------------------|
A|----------------------------------------------------|
E|-7—-7-7--5--5-5--3-2-0--7--7------------------------|

G|----------------------------------------------------|
D|----------------------------------------------------|
A|----------------------------------------------------|
E|-7—-7----5--5----3-2-0--7--7------------------------|

G|----------------------------------------------------|
D|-----9-9----9-9-----7-7----7-7----------------------|
A|----------------------------------------------------|
E|-7—7----7-7-----5-5----5-5--------------------------|

G|----------------------------------------------------|
D|-----5----------9-----9-7---------------------------|
A|--------------------------9-------------------------|
E|-3-3---2-0--7-7---7-7-------------------------------|

G|----------------------------------------------------|
D|-----9-----9-----7------7---------------------------|
A|----------------------------------------------------|
E|-7—7---7-7---5-5----5-5-----------------------------|

G|----------------------------------------------------|
D|-----5----------9-----9-7---------------------------|
A|--------------------------9-------------------------|
E|-3-3---2-0--7-7---7-7-------------------------------|

0 comentários

    mostrar mais comentários
    00:00 / 00:00
    outros vídeos desta música
    repetirqualidadeautomática
    Outro vídeos desta música
      00:00 / 00:00
      automática
      Capítulos
      • Início
      • Tocando a Música
      • Tocando Introdução
      • Ensinando Introdução
      • Tocando Primeira Parte
      • Ensinando Primeira Parte
      • Tocando Segunda Parte
      • Ensinando Segunda Parte
      • Tocando Base Solo Guitarra
      • Ensinando Base Solo Guitarra
      • Tocando Segunda Parte
      • Tocando Variação Segunda Parte
      • Ensinando Variação Segunda Parte
      • Tocando Base Solo Guitarra Final
      • Ensinando Base Solo Guitarra Final
      • Encerramento
      OK