Cifra Club

Coming Back To Life

Pink Floyd

Cifra: Principal (violão e guitarra)
exibições 125.459
Tom: C
  C                                    Fmaj7
Where were you when I was burned and broken
           Am                G             F
While the days slipped by, from my window watching?
      C                                        Fmaj7
And Where were you when I was hurt and I was helpless?
             Am                     Gadd9           F
Beause the things you say and the things you do surround me
                Am7                 F
While you were hanging yourself on someone else's words
 Am                           Bb
Dying to believe in what you heard
Am7             Gsus4            G      Csus2
I was staring straight into the shining sun

 Csus2               Fsus2        F
Lost in thought and lost in time
           Am                    G5                    F
While the seeds of life and the seeds of change were planted
    Csus2        C              Fsus2
Outside the rain fell dark and slow
         Am               G                          Fsus2
While I pondered on this dangerous but irresistible pastime
          Am                        Fsus2
I took a heavenly ride through our silence
            Am             Bbsus2
I knew the moment had arrived
     Am                   Gsus4           Csus2
For killing the past and coming back to life
 
[Solo]

E|------------------------------------------------------------------------|
B|-----------8---------------------------8--10--10b13==r10--8--10---------|
G|-----7b9===---b9r7--5-----5--7b9===-7---------------------------9p7--5--|
D|--5--------------------7------------------------------------------------|
A|------------------------------------------------------------------------|
E|------------------------------------------------------------------------|

E|------------------------------------------------------------------------|
B|--------------------10--8-----------------------------------------------|
G|-----5--h7-----7b9---------9--9s7--5--7b8r------------5--7-----5--7b9---|
D|--7-----------------------------------------7--5--h7--------7-----------|
A|------------------------------------------------------------------------|
E|------------------------------------------------------------------------|

E|--------------------------------------------------|--3/8--10--10b12--15-|
B|------------------8--5----------------------------|---------------------|
G|--7p5-----5--7b9--------7b8--5-----7=--5--7b--/0--|---------------------|
D|-------7------------------------7-----------------|---------------------|
A|--------------------------------------------------|---------------------|
E|--------------------------------------------------|---------------------|

E|--b12rrrr10--8------8--/17--17--15--15--13--13--12h13p12----------------|
B|----------------10----------------------------------------13------11/15-|
G|--------------------------------------------------------------12--------|
D|------------------------------------------------------------------------|
A|------------------------------------------------------------------------|
E|------------------------------------------------------------------------|

E|--12\8----/20--20--20--19h20--20--19--19--17--17--19--15--17--12--15--10|
B|------------------------------------------------------------------------|
G|------------------------------------------------------------------------|
D|------------------------------------------------------------------------|
A|------------------------------------------------------------------------|
E|------------------------------------------------------------------------|

E|--12b--8----------8------10b12r10--8--10------8--8s0--------------------|
B|----------10--10-----10-------------------10----------------------------|
G|------------------------------------------------------------------------|
D|------------------------------------------------------------------------|
A|------------------------------------------------------------------------|
E|------------------------------------------------------------------------|
          
          Am                        Fsus2
I took a heavenly ride through our silence.
            Am            Bbsus2
I knew the waiting had begun
Am                       G              Csus2
And headed straight... Into the shining sun

[Solo]

E|-----------------8--10--10/12===12\0--|-----------------------------------|
B|-------8--8--10-----------------------|-----------------------------------|
G|--0/7---------------------------------|--0--0--7b9r8b10r7b9r7p5h7p5--/9---|
D|--------------------------------------|-----------------------------------|
A|--------------------------------------|-----------------------------------|
E|--------------------------------------|-----------------------------------|
                                        
E|----------------------||--12--12--12==--12------12------12==--12--||------|
B|------8---------------||--13--13--13==--13--13--13--13--13==--13--||------|
G|--10-----9\5-----5/9--||--12--12--12==--12--12--12--12--12==--12--||------|
D|--------------7-------||------------------------------------------||------|
A|----------------------||------------------------------------------||------|
E|----------------------||------------------------------------------||------|

E|--/15--15------15------15--/17--17--15===--12--15--17b20===---\15h17------|
B|---13--13--13--13--13--13-------------------------------------------------|
G|--------------------------------------------------------------------------|
D|--------------------------------------------------------------------------|
A|--------------------------------------------------------------------------|
E|--------------------------------------------------------------------------|

E|--b20==r17--15h17p15p12--15--12b13--10--10\8--8\7--7\5--5------7--8/10----|
B|-----------------------------------------------------------10-------------|
G|--------------------------------------------------------------------------|
D|--------------------------------------------------------------------------|
A|--------------------------------------------------------------------------|
E|--------------------------------------------------------------------------|

E|--8--7--8--7------7/8---------------------7--8----------------------------|
B|--------------10-------8--8--8-----8--10--------0--0/8--------------------|
G|--------------------------------9-----------------------9--7--7/9--5-5----|
D|--------------------------------------------------------------------------|
A|--------------------------------------------------------------------------|
E|--------------------------------------------------------------------------|

E|--------------------------------------------------------------------------|
B|--------------------------------------------------------------------------|
G|------5-5---0-5-5---0-5-5---0-5-5--7/9--5--5--5--4--5--4------------------|
D|--7-7-----7-------7-------7-------------------------------7--5--5/7--5----|
A|--------------------------------------------------------------------------|
E|--------------------------------------------------------------------------|
                                            
E|----------------------------|---------------------------------------------|
B|----------------------------|---------------------------------------------|
G|----------------------------|--9--9--9--9b10rrrr5--7p5--12\9--9--7/9\7p5\-|
D|----------------------------|---------------------------------------------|
A|--7\5--3-----------3/5--p3--|---------------------------------------------|
E|----------5--3--5-----------|---------------------------------------------|

E|-----------------------------------------8/10--8----------------5---------|
B|------------------------------------xxx--8/10--8-----5/8---5/8-----8--5h8-|
G|--5---------------------------------xxx-----------------------------------|
D|-----7------------------------------xxx-----------------------------------|
A|--------7\5--3--5--5--5--3--3=====----------------------------------------|
E|----------------5--5--5--3--3=====----------------------------------------|

E|--------------------------------------------------------------------------|
B|-----5---------------------------5--6--8--(3)/5----------------0----------|
G|--7-----5------------------5--5------------------5--0--5======\0----------|
D|----------------------5h7------------------------------5======\0----------|
A|-------------------------------------------------------3======\-----------|
E|--------------------------------------------------------------------------|
Acordes para:
    Composição: David Gilmour Colaboração e revisão:
    • Renato Almeida
    • Rodrigo Peçanha

    0 comentários

    mostrar mais comentários

    Conseguiu tocar?

    5 tocaram 2 ainda não

    Grave um vídeo tocando Coming Back To Life e mande pra gente!

    00:00 / 00:00
    outros vídeos desta música
    repetir qualidade Automático
    Outros vídeos desta música
    00:00 / 00:00
    Automático
    OK