Cifra Club

Country Song

Pink Floyd

Cifra: Principal (violão e guitarra)
tom: G
Intro: G  C  G  F  C  F  D

Parte 1:

G           C          G
He made his way to the border
F      C      F         D
In the shadow under the trees
G         C           G
Down by a stream in a hollow
F         C    F        D
Turn your head feel the breeze

Parte 2:

Em                     C               G
And the red queen was waiting for the news
Em                     D
For the white king to move
Em                              C               G
And the balance hung upon the head of one who tried
F
To stay within the shadows and keep his undercover secret 
D
Tight

Ritmo Parte 2:

E|-|-----------|------------|------------|-----------|
B|-|-----------|------------|------------|-----------|
G|-|-----------|------------|------------|-----------|
D|-|-7s9-------|------------|-5----------|-----------|
A|-|-5s7-------|------------|-3----------|-5---------|
E|-|-----------|------------|------------|-3---------|
       And the red queen was waiting for..news

E|-|-----------|------------|------------|-----------|
B|-|-----------|------------|------------|-----------|
G|-|-----------|------------|------------|-----------|
D|-|-7s9-------|----------9-|-7----------|-----------|
A|-|-5s7-------|--------9-7-|-5----------|-----------|
E|-|-----------|--------7---|------------|-----------|
       For the white king to move

E|-|-----------|------------|------------|-----------|
B|-|-----------|------------|------------|-----------|
G|-|-----------|------------|------------|-----------|
D|-|-7s9-------|------------|-5----------|-----------|
A|-|-5s7-------|------------|-3----------|-5---------|
E|-|-----------|------------|------------|-3---------|
       And the balance...    head of...   tried

E|-|-----------|------------|------------|-----------|
B|-|-----------|------------|------------|-----------|
G|-|-----------|------------|------------|-----------|
D|-|-----------|------------|------------|-----------|
A|-|--3--------|------3^4---|-3----------|-----------|
E|-|--1--------|------------|-1----------|-----------|
   to stay within...         keep his

E|-|-----------|------------|------------|-----------|
B|-|-----------|------------|------------|-----------|
G|-|-----------|------------|------------|-----------|
D|-|-----------|------------|------------|-----------|
A|-|-3s5-------|------3^^^--|------------|-----------|
E|-|-1s3-------|------------|------------|-----------|
    tight

G            C       G
They let him in by a back way
F      C       F                D
Into a chamber reserved for the queen
G            C            G
She took the note that he gave her
F         C      F              D
Opened it slowly and started to read

Em                       C                  G
Run to the treasury and bring me back some gold
Em                                 D
Give it to the pawn who came, she cried
Em                                 C                G
He says the white king thinks the game of chess is wrong
F
And all the courtiers crowded her and this is what she told the gathered
D
Round

G         C            G
Go to the store by the dungeon
F            C          F            D
Take all the red paint, take all the white
G         C        G
Make up a new born color
F          C         F        D
Cover your neighbor, we'll be alright

Em                             C                G
There'll be no game today she cried across the board
Em                        D
Every day will be a holi-day
Em                             C                G
And all the pieces cheered as tidings spread a-broad
F
And the pink queen sat and smiled at the cat who smiled 
D
Back

Solo over:
G C G  F C F D
repeat and fade
00:00 / 00:00
Outros vídeos desta música
Repetir
Outros vídeos desta música
Composição de David Gilmour / Nick Mason / Richard Wright / Roger Waters
Colaboração e revisão:
  • Túlio Arantes
  • Bruno Hoffmann
5.024 exibições
    • ½ Tom
    • A
    • Bb
    • B
    • C
    • Db
    • D
    • Eb
    • E
    • F
    • F#
    • G
    • Ab
  • Adicionar à lista

    0 comentários

    Ver todos os comentários

    Entre para oCifra Club PRO

    Tenha acesso a benefícios exclusivos no App e no Site

    • Chega de anúncios

    • Prioridade de compra em lançamentos

    • Mais recursos no app do Afinador

    • Atendimento Prioritário

    • Descontos nos produtos Cifra Club

    • Ajude a produzir mais conteúdo

    00:00 / 00:00

    Cifra Club Pro

    Aproveite o Cifra Club com benefícios exclusivos e sem anúncios
    Cifra Club Pro
    Aproveite o Cifra Club com benefícios exclusivos e sem anúncios
    OK