Cifra Club

In The Flesh?

Pink Floyd

Cifra: Principal
exibições 78.385
Tom: A
[Intro]  A  D  A  D  A  Bm  C#m  E


E|--------------------------------------0----------|
B|---------------------------8--8\-3----0----------|
G|---------------------------7--7\-2---------------|
D|-------------------------------------------------|
A|------------0--2-3-------------------------------|
E|-0---2---3---------------------------------------|


E|------0--------0---------------------------------|
B|--------3--------3-------------------------------|
G|-2b-0-----2b-0-----2b-2-0------------------------|
D|--------------------------2-0--------------------|
A|------------------------------2-1-0-------2------|
E|------------------------------------3rb-0--------|


E|-2--4--5--4--2--4--5--7--7--7\-------------------|
B|-3--5--6--5--3--5--6--8--8--8\-------------------|
G|-2--4--5--4--2--4--5--7--7--7\-------------------|
D|-0--0--0--0--0--0--0--0--0--0--------------------|
A|-------------------------------------------------|
E|-------------------------------------------------|


[Riff]


E|----------------------------------------------------------------------------|
B|----------------------------------------------------------------------------|
G|----------------------------------------------------------------------------|
D|----------------------------------------------------------------------------|
A|--4-2-0------5-4-2-0---4-2-0-----5-4-2-0----4-2-0-1-2---5-4-2-3-4---7-5-4---|
E|5-------4-2------------------4-2------------------------------------------0-|


 A                               D
So ya, thought ya might like to go to the show
 A                                       D
To feel that warm thrill of confusion, that space cadet glow
A
I've got some bad news for you sunshine
 Bm
Pink isn't well, he stayed back at the hotel
C#m
And they sent us along as a surrogate band
 E
We're gonna find out where you fans really stand
A                                             D
Are there any queers in the theater tonight? Get them up against the wall!
(Get them all!)
  A                                                       D
There's one in the spotlight, he don't look right to me! Get him up against the wall!
(Get them all!)
  A
That one looks Jewish! And that one's a coon!
  Bm
Who let all of this riff-raff into the room?
  C#m
There's one smoking a joint, and another with spots!
E
If I had my way, I'd have all of you shot!
Acordes para:
    Composição: Roger WatersColaboração e revisão:
    • Lahyri
    • Fernando Amorim
    • Roberto Fº

    0 comentários

      mostrar mais comentários

      Conseguiu tocar?

      23tocaram1ainda não

      Grave um vídeo tocando In The Flesh? e mande pra gente!

      00:00 / 00:00
      outros vídeos desta música
      repetirqualidadeautomática
      Outro vídeos desta música
        00:00 / 00:00
        automática
        OK