Cifra Club

In The Flesh?

Pink Floyd

Cifra: Principal
exibições 79.724
Tom: A
[Intro]  A  D  A  D  A  Bm  C#m  E

E|------------------------------------------------------------------0-----------|
B|-----------------------------------------------------8-----3------0-----------|
G|-----------------------------------------------------7-----2------------------|
D|------------------------------------------------------------------------------|
A|---------------------------------0---2--3-------------------------------------|
E|-0------------2------------3--------------------------------------------------|

E|-------0---------0--------------------------------|
B|-----0---3-----0---3------------------------------|
G|-2b3-------2b3-------2b4-2-0----------------------|
D|-----------------------------2--0-----------2-----|
A|----------------------------------2-1-0-----------|
E|----------------------------------------3p0-------|

E|----------------------------------------------------|
B|-3------------5------------6------------5-----------|
G|-2------------4------------5------------4-----------|
D|-0------------0------------0------------0-----------|
A|----------------------------------------------------|
E|----------------------------------------------------|

E|----------------------------------------------------|
B|-3------------5------------6------------8-----------|
G|-2------------4------------5------------7-----------|
D|-0------------0------------0------------0-----------|
A|----------------------------------------------------|
E|----------------------------------------------------|

Main Riff

E|----------------------------------------------------|
B|----------------------------------------------------|
G|-------------------------------x--------------------|
D|-------------------------------x--------------------| x2
A|-0-----2b4----2-----0----------x-4b5----4-----2-----|
E|------------------------4--2------------------------|

E|----------------------------------------------------|
B|----------------------------------------------------|
G|-------------------------------x--------------------|
D|-------------------------------x--------------------|
A|-0-----2b4----2-----0---1--2---x-4b5----4-----2---3-|
E|----------------------------------------------------|

E|----------------------------------------------------|
B|----------------------------------------------------|
G|-----x----------------------------------------------|
D|-----x---------------------2------------2-----------|
A|-4---x-5b7----5-----4------2------------2-----------|
E|------------------------7\-0------------0-----------|

[RIFF]

 A                               D
So ya, thought ya might like to go to the show
 A                                       D
To feel that warm thrill of confusion, that space cadet glow
A
I've got some bad news for you sunshine
 Bm
Pink isn't well, he stayed back at the hotel
C#m
And they sent us along as a surrogate band
 E
We're gonna find out where you fans really stand
A                                             D
Are there any queers in the theater tonight? Get them up against the wall!
(Get them all!)
  A                                                       D
There's one in the spotlight, he don't look right to me! Get him up against the wall!
(Get them all!)
  A
That one looks Jewish! And that one's a coon!
  Bm
Who let all of this riff-raff into the room?
  C#m
There's one smoking a joint, and another with spots!
E
If I had my way, I'd have all of you shot!
Acordes para:
    Composição: Roger WatersColaboração e revisão:

    0 comentários

      mostrar mais comentários

      Conseguiu tocar?

      24tocaram1ainda não

      Grave um vídeo tocando In The Flesh? e mande pra gente!

      00:00 / 00:00
      outros vídeos desta música
      repetirqualidadeautomática
      Outro vídeos desta música
        00:00 / 00:00
        automática
        OK