Notificações Amigos pendentes

      Pink Floyd

      On the turning away

      48.353 exibições
      Tom: G
      On the turning away
      From the pale and downtrodden
      And the words they say
      Which we won't understand
      "Don't accept that what's happening
      Is just a case of others' suffering
      Or you'll find that you're joining in
      The turning away"
      
      
      
                     G
      It's a sin that somehow
                  C         Em
      Light is changing to shadow
                D    G
      And casting its shroud
            C
      Over all we have known
      Em              C          G
      Unaware how the ranks have grown
      Em             G        C
      Driven on by a heart of stone
      G                        C   Em
      We could find that we're all alone
             D            G
      In the dream of the proud
      
      
      
      Em     D            G
      On the wings of the night
             C          Em
      As the daytime is slurring
                D         G           C
      Where the speechless unite In a silent accord
      
      G                    C         Em
      Using words you will find are strange
      G                     Em         C
      And mesmerized as they light the flame
      G                    C
      Feel the new wind of change
      Em      D           G
      On the wings of the night
      
      
      Solo (Em D C  CD Em D Am C D Am C D Em)
      
      
      
      Em      D       G
      No more turning away
               C           Em
      From the weak and the weary
      Em      D       G             C
      No more turning away From the coldness inside
      
      G                    C        Em
      Just a world that we all must share
      G                       Em        C
      It's not enough just to stand and stare
      G             C                 Em
      Is it only a dream that there'll be
              D       G
      No more turning away?
      
      
      
      Solo (Em Em7 Em   Em  D  G)
      
      
      
      
      
      
      
          G
      -------------------
      -------------------
      -------------------
      -------------------
      -------------------
      --0-2(3)--2vvvvv--
      
      
         E5                                     C
      ----------------------------------------12-------------------
      --15(17)vvvvvvv---1512-(13)15vvvvvv-------12vvvvvvvvvv----
      -------------------------------------------------------------
      -------------------------------------------------------------
      -------------------------------------------------------------
      -------------------------------------------------------------
      
      
      -------------------------------------------------------------------------
      -------------------------------------12-----15-----15(17)15-vvvvvvvvv--
      -------0-2-2(3)20-----------------------------------------------------
      ----2----------------2-vvvvvvvv-----------------------------------------
      -------------------------------------------------------------------------
      -------------------------------------------------------------------------
      
      
                                                  D          G
      ------------------------------------------------------------------------
      ------15(17)===========15--15-15vvvvvvvv--12---------15-vvvvvvvvvv----
      --------------------------------------------------14--------------------
      ------------------------------------------------------------------------
      ------------------------------------------------------------------------
      ------------------------------------------------------------------------
      
      
                                     E5
      ---------------------------------------------
      ---------------------------------------------
      --2(4)2vvvv0----0-------------------------
      -----------------2----2(0)--2vvvvvvvvv------
      ---------------------------------------------
      ---------------------------------------------
      
      
                                                    B
      ------------------------------------------------------------------------------
      ------------------------------------------------------------------------------
      ---------12-------14-------------12--------14(16)vvvvv------------12---------
      ----/14-------14--------14vvvvv-------14------------------------14------14vvv-
      ------------------------------------------------------------------------------
      ------------------------------------------------------------------------------
      
      
                                                        D         G
      -------------------------------------------------------------------
      --------------------------------------------------3----------------
      ----------------------------------------------2---2----------------
      -----97--5vvvvv--57---5vvvvvv---54----20--0---0----------------
      ------------------------------------------------------2--0---------
      -------------------------------------------------------------3-----
      
      
                                    E                 C       E5
      ------3/5---3---3--0--2----0---------------------------------------------------
      ------3/5---3---3--0--2----0---------------------------------------------------
      -------------------------------------------------------------------------------
      -------------------------------------------------------------------------------
      -----------------------------------------0--2-22--2--320--0-------
      ------------------------------0----0---3-----------------------------3---0vvv-
      
      
         D                   E5                                  D         G
      ------------------------------------------------------------------------------
      ---15(17)-------------1512-15vvvvvvvvvv---15--------------------------------
      --------------------------------------------------12---11----11------12vvvvvv-
      --------------------------------------------------12---12----12--12--12vvvvvv-
      ------------------------------------------------------------------------------
      ------------------------------------------------------------------------------
      
      
                                                  E5
      ---------------------------------------------------------------------------
      ------1512----------------------------------------------------------------
      --------------12----12---1211--11----/7----7vvvvvv--9===(11)97-9vvvvv--
      ---------------------------------------------------------------------------
      ---------------------------------------------------------------------------
      ---------------------------------------------------------------------------
      
      
             C                  E5                                      D
      -----------------------------------------------------------------------------
      ------"7"---8---8(10)vvvvvvv87--------7---8------------------------------
      -----------------------------------9-"9"---------6(7)vvvvvvv-----2(4)2vvv-
      -----------------------------------------------------------------------------
      -----------------------------------------------------------------------------
      -----------------------------------------------------------------------------
      
      
        E5                     D       G
      --------------------------------------3--3---3---3---3---3---3-------
      ----------------------------------0---3--3---3---3---3---3---3-------
      ------------0-------2(4)---------0----------------------------------
      ----20--2-----2-----------0------0----------------------------------
      ----------------------------------2----------------------------------
      ----------------------------------3----------------------------------
      
      
                                            E5                              C
      ---------15vvvvv---12---------------12-14-15(17)--17(19)====1715--17vvvv-
      ---1517---------------15(17)vvv--------------------------------------------
      -----------------------------------------------------------------------------
      -----------------------------------------------------------------------------
      -----------------------------------------------------------------------------
      -----------------------------------------------------------------------------
      
      
                       E5                              D           E5
      --15---17---17(19)===17--1512-150vvvvvvvv---------------------------------
      -----------------------------------------------15(17)vvvvvvvvv-1512--15vvvv-
      ------------------------------------------------------------------------------
      ------------------------------------------------------------------------------
      ------------------------------------------------------------------------------
      ------------------------------------------------------------------------------
      
      
                        D                G
      -------------------------------------------------------------------------------
      ----1512--12--------------------------------------15/1715--15/17--0-8-0-3-0-
      ----------------14(16)===14-14121412vvvvvvvvv-----------------------------
      -------------------------------------------------------------------------------
      -------------------------------------------------------------------------------
      -------------------------------------------------------------------------------
      
      
                                   E5
      --------------------------------------------------------
      --------------------------------------------------------
      ------3--------------------2(4)20--------------------
      ----------20----------2-----------------2vvvvvvvv------
      ----------------20-------------------------------------
      --------------------------------------------------------
      
      
            C                     E5
      ------------------------------------------------------------------------
      ---10vvvvvvvvvvvv----10/12--12vvvvvvvvvvv---10(12)====108--10vvvv----
      ------------------------------------------------------------------------
      ------------------------------------------------------------------------
      ------------------------------------------------------------------------
      ------------------------------------------------------------------------
      
      
       D              E5                                         D       G
      -----------10----------------------------------------------------------------
      ---8---10------10(12)vvvvvvvvv--10(12)==108---1087-/-/-/--8-8vvvvvv-
      -----------------------------------------------------------------------------
      -----------------------------------------------------------------------------
      -----------------------------------------------------------------------------
      -----------------------------------------------------------------------------
      
      
                                                                    E5
      ------1512------1412--------1512-------1412------15(17)vvvvv--
      ---0---------12----------12-----------12---------12----------------
      -------------------------------------------------------------------
      -------------------------------------------------------------------
      -------------------------------------------------------------------
      -------------------------------------------------------------------
      
      
                                                    C                   E5
      ----1514--14(15)14--------------------------------------------------------
      -----------------------15------------12------15vvvvv---121512--------------
      -----------------------------14vvv-------14----------------------1412vvvvv--
      -----------------------------------------------------------------------------
      -----------------------------------------------------------------------------
      -----------------------------------------------------------------------------
      
      
                                         D
      -------------------------------------------
      -------------------------------------------
      -------2vvvvvvv----------------------------
      ------------------020--------------------
      -------------------------------0-----------
      --------------------------3---------0-----
      
      
      pulloff/hammer on  -----212-----
      bend(to not in () )-----2(4)----
      hold bend         -----2(4)===2--
      vibrato            ------2vvvvvvv-
      
      dive and return
      
      w/ bar            ----2-/-/-/-   (3 times)
      slide              --2/4--31----
      pinch harmonic     -----"8"-------
      
        Composição: Anthony Moore / David GilmourColaboração e revisão:
        • rick_harper
        • wagner paiva

        Comentários 0

        140 .
        140 cancelar

        conseguiu tocar?

        covers

        Grave um vídeo tocando On the turning away e mande pra gente!

        Ex.: http://www.youtube.com/watch?v=0IvSvIwGdwk
        ver covers de outras músicas »
        0:00 / 0:00

        Capítulos

          2 versões de violão dificuldade exibições contribuição e correção
          2 versões de guitarra dificuldade exibições contribuição e correção
          2 versões de cavaco dificuldade exibições contribuição e correção
          2 versões de teclado dificuldade exibições contribuição e correção
          1 versão de gaita exibições contribuição e correção
          1 versão de Guitar Proformatodownloadscontribuição
          play/pausefechar subir/descer velocidade
          6ª corda E5ª corda A4ª corda D3ª corda G2ª corda B1ª corda E
            acordes
            publicidade
            fechar
            ok