Cifra Club

Shine On You Crazy Diamond

Pink Floyd

Cifra: Principal (violão e guitarra)
exibições 351.351
Tom: A
[Intro]

E|-13h15-13-15~-|------------------------|---------------------------|
B|--------------|----11-13--13h15--13-15-|-13b15r13p11--13-15--13-15-|
G|--------------|-12---------------------|---------------------------|
D|--------------|------------------------|---------------------------|
A|--------------|------------------------|---------------------------|
E|--------------|------------------------|---------------------------|

E|---------------------------------------------------------------|
B|---------------------------------------------------------------|
G|-14h15p14-12-14--------------12/15--12b15----15r12-10-12-12b15-|
D|----------------15-15-12-15------------------------------------|
A|---------------------------------------------------------------|
E|---------------------------------------------------------------|

E|---------------------|-------13-13h15--13/15-15-18--18h20-18~/-------------|
B|---------------------|-13h15-----------------------------------13b15r13p11-|
G|-12b15--r12-10-12-12-|-----------------------------------------------------|
D|---------------------|-----------------------------------------------------|
A|---------------------|-----------------------------------------------------|
E|---------------------|-----------------------------------------------------|

E|-------------------------------------|--------------------------13-|
B|-------------------------------------|-13b15r13p11-13-15--13/15----|
G|-------12--12b15-15-15-r12--10-12-12-|-----------------------------|
D|-12-15-------------------------------|-----------------------------|
A|-------------------------------------|-----------------------------|
E|-------------------------------------|-----------------------------|

E|-13h15-15-13h15--13h15p13--------------------------|-----------------------|
B|--------------------------13h15--13b15r13p11-13-13-|-----------13b15r15p11-|
G|---------------------------------------------------|-10/12-15--------------|
D|---------------------------------------------------|-----------------------|
A|---------------------------------------------------|-----------------------|
E|---------------------------------------------------|-----------------------|

E|---------------13-------|-13/15-15-18-----18-20b22--r20--18b20r18p17-------|
B|-13-15---13b15----13b15-|--------------------------------------------18-20-|
G|------------------------|--------------19----------------------------------|
D|------------------------|--------------------------------------------------|
A|------------------------|--------------------------------------------------|
E|------------------------|--------------------------------------------------|

(end solo)
(segunda parte)

(3:54)
E|----------|
B|---6----5-|
G|-3----0---|
D|----------|
A|----------|
E|----------|

(4:07)
E|----------|
B|---6----5-|
G|-3----0---|
D|----------|
A|----------|
E|----------|

(4:18)
E|----------|
B|---6----5-|
G|-3----0---|
D|----------|
A|----------|
E|----------|

(4:24)
E|----------|
B|---6----5-|
G|-3----0---|
D|----------|
A|----------|
E|----------|

(drums start)

(4:29)
E|----------|
B|---6----5-|
G|-3----0---|
D|----------|
A|----------|
E|----------|

(4:38)
E|------------------3-|
B|------------------3-|
G|------------------3-|
D|--------------------|
A|-3-3-3-3-3-3-3/5----|
E|-1-1-1-1-1-1-1/3----|

(4:51)
E|---------------|
B|---6---4---4-3-|
G|-3---0---------|
D|---------------|
A|---------------|
E|---------------|

(solo part 2)
E|---------------------|-----------------------------|-18p15----18-|
B|-13b15-r13--11h13----|---8-6-----------------------|-------15----|
G|------------------12-|-7-----5b7-r5--5b7r5p3-5-3---|-------------|
D|---------------------|---------------------------5-|-------------|
A|---------------------|-----------------------------|-------------|
E|---------------------|-----------------------------|-------------|

E|-17h18-17--------15-----------------|-18p15----18p15----18/20-|
B|-----------18p15-----18b19r18p15-18-|-------15-------15-------|
G|------------------------------------|-------------------------|
D|------------------------------------|-------------------------|
A|------------------------------------|-------------------------|
E|------------------------------------|-------------------------|

E|-18b20r18p15-18-13/15-------------------------|-------------------------|
B|----------------------------------------------|-------------------------|
G|------------------------15h17b19r17-----15----|-------------------------|
D|-------------------------------------17----17-|-10h12-10----------------|
A|----------------------------------------------|----------10-------------|
E|----------------------------------------------|--------------6h8-6-8/10-|

E|------------------------------------------------|-----------------------|
B|------------------------------------------------|-11--13b15r13b15-13b15-|
G|--------------/12-15-10-12---12b15-r12p10-12/15-|-----------------------|
D|------------------------------------------------|-----------------------|
A|-/10-13-8-10------------------------------------|-----------------------|
E|------------------------------------------------|-----------------------|

E|---------------------------------|-------15--------------------15-17b18-|
B|-13b15--13b15--------------------|-18b20----18b20p18p15--18b20----------|
G|--------------11--11h12p11----11-|--------------------------------------|
D|---------------------------14----|--------------------------------------|
A|---------------------------------|--------------------------------------|
E|---------------------------------|--------------------------------------|

E|-15----------------------------------------------|----------------------|
B|----18b20--18b20r18p15-18------------------------|----------------------|
G|--------------------------17b18---17b18r17p15----|---3-5-5b7--5b7r5-3-5-|
D|----------------------------------------------17-|-5--------------------|
A|-------------------------------------------------|----------------------|
E|-------------------------------------------------|----------------------|

E|-------------------------------|
B|----------3-6--------------3~~-|
G|-5b7--5b7-----5b7--5b7-3-5-----|
D|-------------------------------|
A|-------------------------------|
E|-------------------------------|

(end solo)


(6:27)
E|-3-|
B|-3-|
G|---|
D|---|
A|---|
E|---|

(7:12)
E|-11-|
B|-11-|
G|----|
D|----|
A|----|
E|----|

(7:22)
E|-3-|
B|-3-|
G|---|
D|---|
A|---|
E|---|

(7:33)
(solo part 3)
E|----15-------15-18p15-------|------------------------------------|
B|-18----18b20----------18b20-|------------------------------------|
G|----------------------------|----12--10--------------------------|
D|----------------------------|-12--------10b12-10b11r10p8-10-8----|
A|----------------------------|---------------------------------10-|
E|----------------------------|------------------------------------|

E|------------------------------------18----------|-----------------|
B|------------------------------18b20----18b20r18-|-----------------|
G|-15h17b19--------15------15---------------------|-----15-14-10/12-|
D|-----------15h17----17--------------------------|-/12-------------|
A|------------------------------------------------|-----------------|
E|------------------------------------------------|-----------------|

E|---------------------------------------------------------|-------|
B|-----------------13b14r13p11-13--13p11-13-13-13p11-13b15-|-------|
G|-15h17b19--12-15-----------------------------------------|-12p10-|
D|---------------------------------------------------------|-------|
A|---------------------------------------------------------|-------|
E|---------------------------------------------------------|-------|

E|-------------------------------------------------------------------|
B|-------------------------------------------------------------------|
G|------------------------------------------------------15h17b19-r17-|
D|-10b11--8h10-8----8---10----8--------------------------------------|
A|---------------10--------10---10-8-------/10-13-8-10---------------|
E|-----------------------------------8-10----------------------------|

E|-------15---------|-----15-18p15-18b20----18b20r18p15-18-13/15-|
B|-18b20----18b20---|-/17----------------------------------------|
G|----------------0-|--------------------0-----------------------|
D|------------------|--------------------------------------------|
A|------------------|--------------------------------------------|
E|------------------|--------------------------------------------|

E|-----------------------------------------------------------|-------|
B|----11-13-15-13b15--13b15-r13------------------------------|---8-6-|
G|-12---------------------------11--11-11h12p11----11-11-12/-|-7-----|
D|----------------------------------------------14-----------|-------|
A|-----------------------------------------------------------|-------|
E|-----------------------------------------------------------|-------|

E|-----------------------------------|
B|-----------------------------------|
G|-5b7--5b7r5p3-5-3---3--------------|
D|------------------5---5------------|
A|-------------------------1h3-1-3/5-|
E|-----------------------------------|

(end solo)

Remember when you were young 

E|--------------|
B|--------------|
G|---3-5b7-r5---|
D|-5----------4-|
A|--------------|
E|--------------|

You shone like the sun 

E|-------------|
B|-------------|
G|-------------|
D|-3~--3-3-3-3-|
A|-1~--1-1-1-1-|
E|-------------|

D#5    D5       C5    F5
Shine on you crazy diamond 

E|-------------|
B|-------------|
G|-------------|
D|-------------|
A|-3b5r3-------|
E|-------1-1-2-|

Now there's a look in your eyes 

E|---------------|
B|-6b8-r6--------|
G|--------5b6--6-|
D|---------------|
A|---------------|
E|---------------|

Like black holes in the sky 

E|-------------|
B|-------------|
G|-------------|
D|-3~--3-3-3-3-|
A|-1~--1-1-1-1-|
E|-------------|

D#5    D5       C5    F5
Shine on you crazy diamond 

E|-13-13-13-10-8h10----|
B|-13-13-13-10-8h10----|
G|------------------10-|
D|------------------10-|
A|---------------------|
E|---------------------|

You were caught on the crossfire

E|--------------|
B|--------------|
G|---3-5-5b7-r5-|
D|-5------------|
A|--------------|
E|--------------|

Of childhood and stardom 

E|--------------|
B|--------------|
G|---3-5-5b7-r5-|
D|-4------------|
A|--------------|
E|--------------|

Blown on the steel breeze 

E|-------------|
B|-------------|
G|---3-5-5b7---|
D|-3---------2-|
A|-------------|
E|-------------|

E|-------|
B|-------|
G|-------|
D|-------|
A|-3-5-6-|
E|-------|

Come on you target

E|---------|
B|---------|
G|---------|
D|-----6-6-|
A|-/\/-4-4-|
E|---------|

for faraway laughter 

E|-----------|
B|-----------|
G|-----------|
D|-------9-9-|
A|-5-6-7-7-7-|
E|-----------|

Come on you stranger 

E|----|
B|----|
G|----|
D|-10-|
A|-8--|
E|----|

you legend  You martyr 

E|----|
B|----|
G|----|
D|-11-|
A|-9--|
E|----|

and shine!

E|----|
B|----|
G|----|
D|-12-|
A|-10-|
E|----|

(solo)
E|----------------------------------------------|-------------------|
B|----------------------------------------------|--------8b10--r8-8-|
G|----------------------------------------------|-7-8-10------------|
D|-10b12-10b12r10p8-10b12--11--8-10-10b12r10b12-|-------------------|
A|----------------------------------------------|-------------------|
E|----------------------------------------------|-------------------|

E|-------------------------------------|
B|-------------------------------------|
G|-7b8-r7-7--8h10-8-7------------------|
D|--------------------10---------------|
A|-------------------------------------|
E|-------------------------1b3-1---1-2-|

You reached for the secret too soon 

E|--------------|
B|--------------|
G|---3-5b7-r5---|
D|-5----------4-|
A|--------------|
E|--------------|

You cried for the moon 

E|-------------|
B|-------------|
G|-------------|
D|-3~--3-3-3-3-|
A|-1~--1-1-1-1-|
E|-------------|

G5    D5       C5    F5
Shine on you crazy diamond 

E|---------------|
B|---------------|
G|---------------|
D|---------------|
A|---3b5r3-------|
E|-1-------3b5-1-|

Threatened by shadows at night 

E|-----------------------|
B|-6b8r6b8--6------------|
G|------------5h7--3h5p3-|
D|-----------------------|
A|-----------------------|
E|-----------------------|

And exposed to the light 

E|-------------|
B|-------------|
G|-------------|
D|-3~--3-3-3-3-|
A|-1~--1-1-1-1-|
E|-------------|

D#5    D5       C5    F5
Shine on you crazy diamond 

E|-13-13-13-10-8/10----|
B|-13-13-13-10-8/10----|
G|------------------10-|
D|------------------10-|
A|---------------------|
E|---------------------|

Well you wore out your welcome

E|--------------|
B|--------------|
G|---3-5-5b7-r5-|
D|-5------------|
A|--------------|
E|--------------|

With random precision 

E|--------------|
B|--------------|
G|---3-5-5b7-r5-|
D|-4------------|
A|--------------|
E|--------------|

Rode on the steel breeze 

E|-------------|
B|-------------|
G|---3-5-5b7---|
D|-3---------2-|
A|-------------|
E|-------------|

E|-------|
B|-------|
G|-------|
D|-------|
A|-3-5-6-|
E|-------|

Come on you raver 

E|---------|
B|---------|
G|---------|
D|-----6-6-|
A|-/\/-4-4-|
E|---------|

you seer of visions 

E|-----------|
B|-----------|
G|-----------|
D|-------9-9-|
A|-5-6-7-7-7-|
E|-----------|

Come on you painter 

E|----|
B|----|
G|----|
D|-10-|
A|-8--|
E|----|

you piper  You prisoner

E|----|
B|----|
G|----|
D|-11-|
A|-9--|
E|----|

and shine!

E|----|
B|----|
G|----|
D|-12-|
A|-10-|
E|----|

[Solo Sax]

E|------------------------------------------------------------------------|
B|------------------------------------------------------------------------|
G|------10-----9-----------10------9--------------------------------------|
D|---8-------------------8------------------------------------------------|
A|----------10----3/5---------10------------------------------------------|
E|-----------------1/3----------------------------------------------------|

E|---------10-------------------------------------------------------------|
B|-11-13-----13-11--------------------------------------------------------|
G|------------------------------------------------------------------------|
D|------------------------------------------------------------------------|
A|------------------------------------------------------------------------|
E|------------------------------------------------------------------------|

E|-----11-----11-----11---------------------------------------------------|
B|-13-----13-----13-----10-11-10-11-10-11-10-11---------------------------|
G|------------------------------------------------------------------------|
D|------------------------------------------------------------------------|
A|------------------------------------------------------------------------|
E|------------------------------------------------------------------------|

(1º base)
E|----------|
B|---6----5-|
G|-3----0---|
D|----------|
A|----------|
E|----------|

(2º base)
E|---------8-----10-----8---------|
B|-5/6-6-6---6-6----6-6---6-6-5/6-|
G|--------------------------------|
D|--------------------------------|
A|--------------------------------|
E|--------------------------------|

E|--------5\3-|
B|------------|
G|-3/5--x-----|
D|------------|
A|------------|
E|------------|

(end music)
Acordes para:

    0 comentários

    mostrar mais comentários

    Conseguiu tocar?

    20 tocaram 0 ainda não

    Grave um vídeo tocando Shine On You Crazy Diamond e mande pra gente!

    00:00 / 00:00
    outros vídeos desta música
    repetir qualidade Automático
    Outros vídeos desta música
    00:00 / 00:00
    Automático
    OK