Cifra Club

Shine On You Crazy Diamond

Pink Floyd

Cifra: Principal
exibições 316.782
Tom: A#
[Solo 1]

E|--13^-13-13^-----------------------------------------------------------|
B|--------------------------11-13-13^-13-13^~------13^-10-13-13^-13-13^~-|
G|-----------------12-12----------------------------12-------------------|
D|-----------------------------------------------------------------------|
A|-----------------------------------------------------------------------|
E|-----------------------------------------------------------------------|
 
E|-----------------------------------------------------------------------|
B|----10h-11p-10------10-----------------------------10^-----------------|
G|----------------------------------12-----10-10-----10~/0-12^-----------|
D|-------------------------------------------------------12--------------|
A|-----------------------------------------------------------------------|
E|-----------------------------------------------------------------------|
 
E|----------------------------------------------------------------------|
B|-----------------------------------------------------------------------|
G|-----10h-12p-10-12^-12^-10-12-10-12------------------------------------|
D|-----------------------------------------------------------------------|
A|-----------------------------------------------------------------------|
E|-----------------------------------------------------------------------|
 
E|----------13-15-13/15-15-18-15-18^~~-----------------------------------|
B|-13/15----------------------------------------13^-11---13----11--------|
G|---------------------------------------------------------12----12------|
D|-----------------------------------------------------------------------|
A|-----------------------------------------------------------------------|
E|-----------------------------------------------------------------------|
 
E|------------------------------------------11/13-15-13/15-13/15-13------|
B|-----------13^-11-13-13^-13-13^----------------------------------------|
G|-12-12-10~~------------------------------------------------------------|
D|-----------------------------------------------------------------------|
A|-----------------------------------------------------------------------|
E|-----------------------------------------------------------------------|
 
E|-----------------------------------------------------------------------|
B|-15-13-15-13^-11-13-13~~----11-----------------------------------------|
G|---------------------------------------------12------------------------|
D|-----------------------------------------------------------------------|
A|-----------------------------------------------------------------------|
 
E|----------------------13--------13/15-15-18-----18-20^-18^-18-17---------|
B|--13^-11-13-13^----13^~~----------------15-----------------------18-18/20|
G|-------------------------------------------------------------------------|
D|-------------------------------------------------------------------------|
A|-------------------------------------------------------------------------|
E|-------------------------------------------------------------------------|
 
[Riff]
E|---------------------------------------|
B|---------------------------------------|
G|------10-----9-------------------------|   
D|---8-----------------------------------|      
A|----------10---------------------------|
E|---------------------------------------|
 
E|---------------------------------------------------------|
B|---------------------------------------------------------|
G|----------------------------------10-----9----------10---|
D|-------------------------------8------------------8------|
A|-3-3-3-3-3-3-3-3-3/5-----------10------------------10----|
E|-1-1-1-1-1-1-1-1-1/3-------------------------------------|
 
E|-------------------------------------------------------------|
B|---------------------8-7-------------------------------------|
G|----8--8/7/8---8-7-7/6/7----------------------------10-----9-|
D|-----------8/7/8---8-7-7/6/7-------------------------8-------|
A|--------------------------3-3-3-3-3-3-3-3-3/5-----10---------|
E|-----------------------------1-1-1-1-1-1-1-1-1/3-------------|
 
[Solo 2]

E|---------------------------------------------------------------|
B|-13^-13-11^-13-------------------------------------------------|
G|---------------------12-----------12-10------------------------|
D|----------------------------8/10----------12-10^-8-10-8--------|
A|---------------------------------------------------------------|
E|---------------------------------------------------------------|
 
E|----------------18-15-----18-18-17---------15-13/15-13---------|
B|-----------------15-------------18-15------------------15-13-15|
G|---------------------------------------------------------------|
D|---------------------------------------------------------------|
A|-------10------------------------------------------------------|
E|---------------------------------------------------------------|
 
E|--18-15------18-15------19^-18^-15-18-15-----------------------|
B|--------15-----------15----------------------------------------|
G|---------------------------------------------------------------|
D|---------------------------------------------------------------|
A|---------------------------------------------------------------|
E|---------------------------------------------------------------|
 
E|---------------------------------------------------------------|
B|-13^^-----11---------------------------------------------------|
G|--------12-----12--------------------------------3-------------|
D|----------------------5/3-3------------------1/3---3-5---------|
A|------------------------------5-3-1-3/5------------------------|
E|---------------------------------------------------------------|
 
E|----------6-------10^8-----8~----------------------------------|
B|-6/7---6-9---------10------11-13^^--14^-11h-13p-11-13-14^------|
G|---------------------------------------------------------------|
D|---------------------------------------------------------------|
A|---------------------------------------------------------------|
E|---------------------------------------------------------------|
 
E|-------------------------------------------------17^-17-15-----|
B|--------------20-20-20-20--------------------------------------|
G|-------11—11^-9-11-11--19-19-----------------------------------|
D|---------------------------------------------------------------|
A|---------------------------------------------------------------|
E|---------------------------------------------------------------|
 
E|----------------------------------------------------------------------------|
B|-19^-15-19-15-13^-11---------------------------------------6----------------|
G|-----------------------12------------------6^-6^---5-7-5/7-7---7^-7^--5-7---|
D|-----------------------------------8----10--------8-----------------------8-|
A|----------------------------8/10---10---------------------------------------|
E|----------------------------------------------------------------------------|
 
E|----------------------------------------------------------------------------|
B|--------------------------------------10/8----------10/8----8/6/8-----------|
G|-----------9/7----------9/7--------------------------------------------9/7--|
D|----------------------------------------------------------------------------|
A|----8/10-------8/10--------8/10---------8/10--------------------8/10--------|
E|----------------------------------------------------------------------------|
 
Gm
  Remember when you were young                 [Riff 1]
F#                    Bb
  You shone like the sun
  Eb      Bb/D    Cm     Bb    F                  [Riff 2]
Shine on you cr   - a  - zy diamond

 Gm
Now there's a look in your eyes                [Riff 3]
F#                         Bb
  Like black holes in the sky
  Eb     Bb/D     Cm     Bb    F                  [Riff 4]
Shine on you cr   - a  - zy diamond


          Gm                       Gm/F#
You were caught in a crossfire of childhood
And stardom

  Gm/F                C7/E
Blown on the steel breeze
 Eb                     C7/E
Come on you target for faraway laughter
 Bb                        Dm          D
Come on you stranger, you legend, you martyr
      Gm
And shine


[Solo 3] Gm  F#  Bb  Eb  Bb/D  Cm  Bb  F  F  F#

E|------------------------------3^- 3--------------------------------|
B|-------------------3----3-4-6-------4-3---6-4-3--------------------|
G|-5^-3-5^--5^-3-5-6------------------------------5------------------|
D|-------------------------------------------------------------------|
A|-------------------------------------------------------------------|
E|----------------------------------------------------3^-1--1-2------|
 

 Gm
You reached for the secret too soon     [Riff]
F#                  Bb
  You cried for the moon
  Eb     Bb/D    Cm     Bb    F           (RIFF 2)
Shine on you cr   - a  - zy diamond

Gm
Threatened by shadows at night          [Riff 6]
F#                   Bb
  And exposed in the light
  Eb     Bb/D    Cm     Bb    F           (RIFF 4)
Shine on you cr   - a  - zy diamond

          Gm                         Gm/F#
Well you wore out your welcome with random precision
 Gm/F                
Rode on the steel breeze
 Eb                    
Come on you raver you see off vision
 Bb                       Dm         D
Come on you painter, you piper, you prisoner
      Gm
And shine

[Solo Sax]

E|------------------------------------------------------------------------|
B|------------------------------------------------------------------------|
G|------10-----9-----------10------9--------------------------------------|
D|---8-------------------8------------------------------------------------|
A|----------10----3/5---------10------------------------------------------|
E|-----------------1/3----------------------------------------------------|
 
E|---------10-------------------------------------------------------------|
B|-11-13-----13-11--------------------------------------------------------|  
G|------------------------------------------------------------------------|
D|------------------------------------------------------------------------|
A|------------------------------------------------------------------------|
E|------------------------------------------------------------------------|

E|-----11-----11-----11---------------------------------------------------|
B|-13-----13-----13-----10-11-10-11-10-11-10-11---------------------------|
G|------------------------------------------------------------------------|
D|------------------------------------------------------------------------|
A|------------------------------------------------------------------------|
E|------------------------------------------------------------------------|
 
[Solo 4] Gm  F#  Bb  Eb  Bb/D  Cm  Bb  F  F  F#

E|-----------------------------------------3^-3----------------------------|
B|-------------------------------3-3-4-6-------4-3-6-4-3-------------------|
G|-5^5^-5^-3-5^-5^-3-5-6------------------------------5--------------------|
D|-------------------------------------------------------------------------|
A|-------------------------------------------------------------------------|
E|----------------------------------------------------------------3^-1-1-2-|
 
 Gm
Nobody knows where you are,              [Riff 1]
F#                Bb
  How near or how far
  Eb     Bb/D    Cm     Bb    F            (RIFF 2)
Shine on you cr   - a  - zy diamond

 Gm
Pile on many more layers                 [Riff 3]
F#                           Bb
  And I'll be joining you be there.
Eb     Bb/D    Cm     Bb    F            [Riff 4]
Shine on you cr   - a  - zy diamond


           Gm                   Gm/F#
And we'll bask in the shadow of yesterday's triumph,

 Gm/F               
Sail on the steel breeze
 Eb                         
Come on you boy child, you winner and loser,
 Bb                    Dm          D
Come on you miner for truth and delusion,
      Gm
And shine


[Riff Final]

E|---------10--------------|
B|-11-13-----13-11---------|  
G|-------------------------|
D|-------------------------|
A|-------------------------|
E|-------------------------|

[Riff 1]

E|-------------------------|
B|-------------------------|
G|------3----5^------------|
D|-3/5----5-----4----------|
A|-------------------------|
E|-------------------------|
 
[Riff 2]

E|-------------------------|
B|-------------------------|
G|-------------------------|
D|------------------------|
A|--3^-3-------------------|
E|--------3^-1-1-2---------|
 
[Riff 3]

E|---3---------------------|
B|---3--6------------------|
G|---3----5^---------------|
D|-5----------4------------|
A|-------------------------|
E|-------------------------|
 
[Riff 4]

E|--13-13-13-10-8/1--------|
B|--13-13-13-10-8/1--------|
G|-------------------------|
D|-------------------------|
A|-------------------------|
E|-------------------------|
 
[Riff 5]

E|-------------------------|
B|-------------------------|
G|------3----5^-5^-3-------|
D|-3/5----5----------------|
A|-------------------------|
E|-------------------------|
 
[Riff 6]

E|-------------------------|
B|-6^^-3-------------------|
G|---------5-3h5p3---------|
D|-------------------------|
A|-------------------------|
E|-------------------------|
Acordes para:

    0 comentários

      mostrar mais comentários

      Conseguiu tocar?

      17tocaram0ainda não

      Grave um vídeo tocando Shine On You Crazy Diamond e mande pra gente!

      00:00 / 00:00
      outros vídeos desta música
      repetirqualidadeautomática
      Outro vídeos desta música
        00:00 / 00:00
        automática
        OK