Cifra Club

Pirates Of The Caribbean Fighting Theme

Piratas do Caribe

Cifra: Principal
exibições 328.905
Tom: C
(intro)

E|------------------------0-1-1-1-3-0-0--------|
B|--------------0-2-2-2-----------------2-0-2--|
G|--------2--2---------------------------------| (2X)
D|--------0------------------------------------|
A|-5(8X)---------------------------------------|
E|---------------------------------------------|

(1 Tema)(2x)
E|--------------------------5-6-6---5---5-------|
B|---------------6--8-8-8-------------8---------|
G|-----5-7-7-7----------------------------7-----|
D|-7-7------------------------------------------|
A|----------------------------------------------|
E|----------------------------------------------|

E|----------------5-----------------|-----------|
B|------5-6-6--8------------6--5-5--|-6----5----|
G|-7-7---------------7---7----------|---7-------|
D|----------------------------------|-----------|
A|----------------------------------|-----------|
E|----------------------------------|-----------|
(2 Tema)
E|---------|---------------5-------|
B|---------|------5-6-6-8-----6----|
G|--7-5-7--|-/7------------------7-|
D|---------|-----------------------|
A|---------|-----------------------|
E|---------|-----------------------|

(3 Tema)
E|-6----------------------5--5--5--6--5-|
B|---6-------6/8-10-11------------------|
G|-----7--------------------------------|
D|--------------------------------------|
A|--------------------------------------|
E|--------------------------------------|

E|---------------5--5--5--6--5-------------|
B|-8-8-8-10-8-------------------6/8-6-5----|
G|---------------------------------------7~|
D|-----------------------------------------|
A|-----------------------------------------|
E|-----------------------------------------|

(4 Tema)
E|----------------------------------------|
B|--------------10-----------------10-----|
G|-----9-10-12------12-10-9-10-12-----12--|
D|-12-------------------------------------|
A|----------------------------------------|
E|----------------------------------------|

E|--------------------------------------|
B|-------10-----------------------------|
G|-10-12----12-10---9-10-9---7-9---5-7--|
D|--------------------------------------|
A|--------------------------------------|
E|--------------------------------------|

E|----------------------------------|
B|--------------8----8-10-8---------|
G|-7-9-10--9-10---10--------10---7--|
D|----------------------------------|
A|----------------------------------|
E|----------------------------------|

E|---------------------------------|
B|---------8--10--10/11---8----8---|
G|-7-9-10---------------7---10---9-|
D|---------------------------------|
A|---------------------------------|
E|---------------------------------|

(5 Tema)
E|-------|--5---6---5-5-6-5-------------------|
B|-------|--------------------8---6---5-6-5---|
G|-7-9-5-|-----------------------------------7|
D|-------|------------------------------------|
A|-------|------------------------------------|
E|-------|------------------------------------|

E|--------5--------6--------5--5-5-8-5--------|
B|------6--------6--------6------------8------|
G|---7---------7--------7---------------------|
D|-7---------7--------7-----------------------|
A|--------------------------------------------|
E|--------------------------------------------|

E|-0------------|
B|-8-6-5-6-5----|
G|------------7~|
D|--------------|
A|--------------|
E|--------------|
Acordes para:

    0 comentários

      mostrar mais comentários

      Conseguiu tocar?

      32tocaram3ainda não

      Grave um vídeo tocando Pirates Of The Caribbean Fighting Theme e mande pra gente!

      00:00 / 00:00
      outros vídeos desta música
      repetirqualidadeautomática
      Outro vídeos desta música
        00:00 / 00:00
        automática
        OK