Cifra Club

Here comes your man

Pixies

Tab de baixo: Principal
exibições 6.694
Fill 1				   
|------------0-2-------------------|	
|---0-0-4-4---------------0-2-0----|	
|-------------------2-0-4----------|
|----------------3-----------------|	

Fill 2						                
|-----------------------------------------------------|	        
|---0-0--0----------------------------------------0---|	        
|-------0---0-0-0-4-4-5-7------------------2-3--------|	        
|-----------------------------0-0-0-2-3-3-3-----------|	        

Fill 3
|--------------|
|----------0---|
|---2----------|
|-----3-5------|

Fill 1 - 3 times
Fill 2 - 4 times
Fill 3 - 1 times

Fill 1 - 3 times
Fill 2 - 3 times
Fill 3 - 1 times

Fill 1 - 4 times
Fill 2 - 4 times (Solo) 
Fill 3 - 1 times

Fill 1 - 14 times
Composição: Black FrancisColaboração e revisão:
  • Filipe Silva

0 comentários

    mostrar mais comentários

    Conseguiu tocar?

    1tocaram0ainda não

    Grave um vídeo tocando Here comes your man e mande pra gente!

    00:00 / 00:00
    outros vídeos desta música
    repetirqualidadeautomática
    Outro vídeos desta música
      00:00 / 00:00
      automática
      OK