Cifra Club

Here comes your man

Pixies

Tab de baixo: Versão 2
Maybe it´s not all right, but I hopes it helpes you. 

Chorus/ Main-Riff:

(x2)
   1 + 2 + 3 + 4 +  1 + 2 + 3 + 4 + 
G|----------------|----------------||  
D|-----4-4-5------|----------------||   
A|-5-5------------|-2-0---4-5-7-5--||   
E|-----------5-3--|-----5----------||

   1 + 2 + 3 + 4 +  1 + 2 + 3 + 4 +
G|----------------|----------------||  
D|-----4-4-5------|----------------||   
A|-5-5------------|-2-0---4-5-7----||   
E|-----------5-3--|-----5----------||

Verse:

(x4)
  1 + 2 + 3 + 4 + 1 + 2 + 3 + 4 + 1 + 2 + 3 + 4 + 1 + 2 + 3 + 4 + 
G|---------------|---------------|---------------|---------------||
D|---------------|---------------|---------------|---------------||   
A|5-----5-----5--|--------4-4-5--|---------------|--------2-2-3-3||   
E|----------5----|5-5---5-------5|0-----0---0-2--|3-3---3------ -||

Before the Chorus, play this one time:

  1 + 2 + 3 + 4 + 1 + 2 + 3 + 4 + 1 + 2 + 3 + 4 + 1 + 2 + 3 + 4 + 
G|---------------|---------------|---------------|---------------||
D|---------------|---------------|---------------|--------4-4-5-7||   
A|2-----2-2------|---------------|---------------|5-5-5-5------ -||   
E|---------------|3-----3-3------|5---5-5-5-5-5-5|---------------||

Start of the Chorus:

   5 +  1 + 2 + 3 + 4 + 
G|----|----------------||  
D|----|----------------||   
A|----|-2-0---4-5-7-5--||   
E|-3--|-----5----------||

Chorus:

   1 + 2 + 3 + 4 +  1 + 2 + 3 + 4 + 
G|----------------|----------------||  
D|-----4-4-5------|----------------||   
A|-5-5------------|-2-0---4-5-7-5--||   
E|-----------5-3--|-----5----------||

   1 + 2 + 3 + 4 +  1 + 2 + 3 + 4 + 
G|----------------|----------------||  
D|-----4-4-5------|----------------||   
A|-5-5------------|-2-0---4-5-7----||   
E|-----------5-3--|-----5----------||

Again the Verse:

   1 + 2 + 3 + 4 + 1 + 2 + 3 + 4 +  1 + 2 + 3 + 4 + 1 + 2 + 3 + 4 + 
G|----------------|----------------|---------- ----|----------------||
D|----------------|----------------|---------------|----------------||   
A|-5-----5-----5--|--------4-4-5---|---------------|--------2---3---||   
E|-----------5----|5-5---5-------5-|0-----0---0-2--|3-3---3---------||

(x2)
   1 + 2 + 3 + 4 + 1 + 2 + 3 + 4 +  1 + 2 + 3 + 4 + 1 + 2 + 3 + 4 + 
G|----------------|----------------|---------------|----------------||
D|----------------|----------------|---------------|----------------||   
A|-5-----5-----5--|--------4-4-5---|---------------|--------2-2-3-3-||   
E|-----------5----|5-5---5-------5-|0-----0---0-2--|3-3---3---------||

   1 + 2 + 3 + 4 + 1 + 2 + 3 + 4 + 1 + 2 + 3 + 4 + 1 + 2 + 3 + 4 + 
G|----------------|---------------|---------------|----------------||
D|----------------|---------------|---------------|--------4-4-5-7-||   
A|-2-----2-2------|---------------|---------------|5-5-5-5---------||   
E|----------------|3-----3-3------|5--5-5-5-5-5-5-|----------------||

Start of the Chorus:

   5 +  1 + 2 + 3 + 4 + 
G|----|----------------||  
D|----|----------------||   
A|----|-2-0---4-5-7-5--||   
E|-3--|-----5----------||

Chorus(x2):

   1 + 2 + 3 + 4 +  1 + 2 + 3 + 4 + 
G|----------------|----------------||  
D|-----4-4-5------|----------------||   
A|-5-5------------|-2-0---4-5-7-5--||   
E|-----------5-3--|-----5----------||

   1 + 2 + 3 + 4 +  1 + 2 + 3 + 4 + 
G|----------------|----------------||  
D|-----4-4-5------|----------------||   
A|-5-5------------|-2-0---4-5-7----||   
E|-----------5-3--|-----5----------||

Interlude/ Solo-Part: 

   1 + 2 + 3 + 4 +  1 + 2 + 3 + 4 +  1 + 2 + 3 + 4 +  1  + 2 + 3  +  4 + 
G|-----------------|----------------|----------------|-------------------|
D|-----------------|----------------|----------------|-------------------|   
A|-5-5-5---5-5-5-5-|----------------|7-7-7---7-7-7-7-|10-9-9-7-10-10-9-7-|   
E|-------5---------|5-5-5-0-5-5-5-5-|------7---------|-------------------|

G|-----------------|----------------|----------------|-------------------|
D|-----------------|----------------|----------------|-----------------7-|   
A|-5-5-5---5-5-5-5-|----------------|7-7-7---7-7-7-7-|10-9-9-7-10-10-9---|   
E|-------5---------|5-5-5-0-5-5-5-5-|------7---------|-------------------|

G|-----------------|----------------|----------------|------------------------|
D|-----------------|----------------|----------------|------------------------|   
A|-5-5-5---5-5-5-5-|----------------|7-7-7-7-7-7-7-7-|10-10-10-10-10-10-10-10-|   
E|-------5---------|5-5-5-0-5-5-5-5-|----------------|------------------------|

G|-----------------|----------------|----------------|------------------------|
D|-----------------|----------------|----------------|------------------------|   
A|-5-5-5-5-5-5-5-5-|----------------|7-7-7-7-7-7-7-7-|10-10-10-10-10-10-10-10-|   
E|-----------------|5-5-5-5-5-5-5-5-|----------------|------------------------|

  1 + 2 + 3 + 4 + 1 + 2 + 3 + 4 + 1 + 2 + 3 + 4 +  1 + 2 + 3 + 4 +  1 +
G|---------------|---------------|----------------|----------------|----||
D|---------------|---------------|----------------|----------------|----||   
A|2-----2-2------|3-----3-3------|----------------|5-5-5-5-5-5-5-5-|5---||   
E|---------------|---------------|5---5-5-5-5-5-5-|----------------|----||

Play again the Chorus till the end:

   1 + 2 + 3 + 4 +  1 + 2 + 3 + 4 + 
G|----------------|----------------||  
D|-----4-4-5------|----------------||   
A|-5-5------------|-2-0---4-5-7-5--||   
E|-----------5-3--|-----5----------||



Composição de Black Francis
965 exibições

0 comentários

Ver todos os comentários

Conseguiu tocar?

0 Tocaram 0 Ainda não

Grave um vídeo tocando Here comes your man e nos envie!

00:00 / 00:00
Outros vídeos desta música
Repetir Qualidade Automático
Outros vídeos desta música
00:00 / 00:00
Automático

Cifra Club Pro

Aproveite o Cifra Club com benefícios exclusivos e sem anúncios
Cifra Club Pro
Aproveite o Cifra Club com benefícios exclusivos e sem anúncios
OK