Cifra Club

Into The White

Pixies

Tab de baixo: Principal
exibições 653
Tabbed By : Jeff
e-mail:

Tuning: Standard

1.
G|------------------------------------------------------------------------------------------------------------------|
D|------------------------------------------------------------------------------------------------------------------|
A|------------------------------------------------------------------------------------------------------------------|
E|0--0--0--0--4--4--4--4--5--5--5--5--7--7--7--7--------------------------------------------------------------------|

2.
G|------------------------------------------------------------------------------------------------------------------|
D|-------------------------------------------------------------------------------11-11-14-14------------------------|
A|-------------------------12-12-12-12-11-12-12-12-13-13-13-13-13-13-13-13-12-12-------------12-12------------------|
E|12-12-11-11-10-10-11-11-------------------------------------------------------------------------------------------|

3.
G|------------------------------------------------------------------------------------------------------------------|
D|------------------------------------------------------------------------------------------------------------------|
A|7--7--7--7--7--7--7--7--12-12-12-12-12-12-12-12-13-13-13-13-13-13-13-13-12-12-12-12-12-12-12-12-------------------|
E|------------------------------------------------------------------------------------------------------------------|

4.
G|------------------------------------------------------------------------------------------------------------------|
D|------------------------------------------------------------------------------------------------------------------|
A|------------------------------------------------------------------------------------------------------------------|
E|0--0--0--0--4--4--4--4--5--5--5--5--7--7--7--7--6--6--6--6--6--6--6--6--5--5--5--5--5--5--5--5--------------------|

1 x4
rest
2 x3
3 x3
2 x3
3 x3
2 x3
3 x3
4 x8

0 comentários

    mostrar mais comentários

    Conseguiu tocar?

    0tocaram0ainda não

    Grave um vídeo tocando Into The White e mande pra gente!

    00:00 / 00:00
    outros vídeos desta música
    repetirqualidadeautomática
    Outro vídeos desta música
      00:00 / 00:00
      automática
      OK