Cifra Club

Aprenda

There Goes My Gun

Pixies

Tab de baixo: Principal
Tabbed  By : Rodeo_Clown
e-mail: P*

Tuning: Standard


| /  slide up
| \  slide down
| h  hammer-on

Verse x 4


G|---------------------------------------------------------------------------|
D|---------------------------------------------------------------------------|
A|-9-9--/-44-4--4h5-5--------------------------------------------------------|
E|--------------------------------------------------------------------------

Chorus x 2

G|---------------------------------------------------------------------------|
D|---------------------------------------------------------------------------|
A|----------------5-\77777777777-/3----------------2--2----------------------|
E|--55555555555--------------------33333333333------------------------------

Outro

G|---------------------------------------------------------------------------|
D|---------------------------------------------------------------------------|
A|-9999-/4444-\55--9999-/4444-\55--9999-/4444-\55--9999-/4444-\55------------|
E|--------------------------------------------------------------------------


G|---------------------------------------------------------------------------|
D|---------------------------------------------------------------------------|
A|---------5h7---------------------------------------------------------------|
E|--555555------55----------------------------------------------------------

Order

Intro (No Bass)
Verse
Chorus
Verse
Chorus
Verse
Instrumental (continue playing verse)
Chorus
Outro
Composição de Black Francis
235 exibições

0 comentários

Ver todos os comentários

Conseguiu tocar?

0 Tocaram 0 Ainda não

Grave um vídeo tocando There Goes My Gun e nos envie!

00:00 / 00:00
outros vídeos desta música
repetir qualidade Automático
Outros vídeos desta música
00:00 / 00:00
Automático

Cifra Club Pro

Aproveite o Cifra Club com benefícios exclusivos e sem anúncios
Cifra Club Pro
Aproveite o Cifra Club com benefícios exclusivos e sem anúncios
OK