Wave Of Mutilation

Pixies

Composição de: Black Francis
tom: F


-3----------'
-3----------'
-4----------'
-5----------'10x
-5----------'
------------'

--------------------'
--------------------'
--------------------'
-5--4--3-------0----'1 time
---------5--3-------'
--------------------'

-----------------------------------------------------'
-----------------------------------------------------'
-----------------------------------------------------'
-------------------------5--5--5--5------------------'4x
5--5--5--5--9--9--9--9---3--3--3--3--7--7--7--7------'
3--3--3--3--7--7--7--7---------------5--5--5--5------'

----------------------------------------------------------------------------|
----------------------------------------------------------------------------|
-------------------------------------2-2-2-2-2-2-2---5-5----4---------------|
-------------------------5--5--5--5--2-2-2-2-2-2-2---5-5-x--4-----5---------|
5--5--5--5--9--9--9--9---3--3--3--3--0-0-0-0-0-0-0---3-3-x--2--2/-5---------|
3--3--3--3--7--7--7--7-----------------------------------------2/-3---------|

cease to  resist giving my good bye's
------------------------------------------------------'
------------------------------------------------------'
--------------------------------2---------------------'
----------4---------------5-----2----5-5-x-4-x--------'
5---------2---------------3-----0----3-3-x-2-x-5------'
3----------------------------------------------3------'

drive my car into      the   ocean
------------------------------------------------------'
------------------------------------------------------'
--------------------------------2---------------------'
-------------4---------5--------2----5-5-x-4-x--------'
5------------2---------3--------0----3-3-x-2-x--5-----'
3-----------------------------------------------3-----'

you    think    i'm    dead    but  i sail away
----------------------------------------------------------------------------|
----------------------------------------------------------------------------|
-------------------------------------2-2-2-2-2-2-2---5-5----4---------------|
-------------------------5--5--5--5--2-2-2-2-2-2-2---5-5-x--4-----5---------|
5--5--5--5--9--9--9--9---3--3--3--3--0-0-0-0-0-0-0---3-3-x--2--2/-5---------|
3--3--3--3--7--7--7--7-----------------------------------------2/-3---------|

on a,   wave  of  mut-il-ation
-------------------------------------'
-------------------------------------'
-------------------------5-5-5-------' 3x
-------55---5---99----9--5-5-5-------'
x--x---55---5---99----9--3-3-3-------'
x--x---33---3---77----7--------------'

wa-a--a--ve
-------------'      ----------------------------------|
-------------'      ----------------------------------|
-------------'  3x  -2--------------------------------|
---------5---'      -2----5--5-x---4------------------|
--5--0---3---'      -0----3--3-x---2------------------|
--3--0-------'      ----------------------------------|

-----------------------------------------------------'
-----------------------------------------------------'
-----------------------------------------------------'
-------------------------5--5--5--5------------------'4x
5--5--5--5--9--9--9--9---3--3--3--3--7--7--7--7------'
3--3--3--3--7--7--7--7---------------5--5--5--5------'


and thats it,
bobbytabasco.
Página 1 / 1

Letras e título
Acordes e artista

resetar configurações
OK