Wave Of Mutilation

Pixies

Composição de: Black Francis
From: "Keith Walsh" 
 
G------------------------------------------------------------------------------
D------------------------------------------------------------------------------
A---------------------------------------------------------------------------
---         1
E-6-6-6-6-6-6-6-6-3-3-3-3-3-3-3-3----------------------------------
 
G---------------------------------------------------------------------------
--------------
D---------------------------------------------------------------------------
--------------
A---------------------------------------------------------------------------
--------------          2
E-1-1-1-1-1-1-1-1-5-5-5-5-5-5-5-5-6-6-6-6-6-6-6-6-3-3-3-3-3-3-3-3-
 
G----------------------------------------
D----------------------------------------
A----------------------------------------            3
E-1-1-1-1-5-5-5-5-6-6-6-6-------
 
G---------------------------------------
D---------------------------------------
A---------------------------------------                 4
E-1--------------------6---------------
 
G--------------------------------------------------------------
D---------------------------------------------------------------
A---------------------------------------------------------------             5
E-1-1-1-1-1-1-1-1-5-5-6-6-5-5-6-6-------------------
 
 
 
1x1
2x1
3x3
2x3
3x3
4x2
1x1
2x3
3x3
5x2
3x3
4x2
 
 
 
 
 
 
 


Página 1 / 1

Letras e título
Acordes e artista

resetar configurações
OK