Where Is My Mind

Pixies

Composição de: Black Francis
Intro - Rest 4 Bars

Enter with drums & guitar 2

G|----------------------------------|
D|----------------------------------|
A|---------4-4----------------------|
E|-0-0-------------4-4-----5-5------|

G|----------------------------------|
D|----------------------------------|
A|---------4-4-4-4------------------|
E|-0-0-0-0---------4-4-4-4-5-5-5-5--|

Verse 1 ["With your feet on the air..."]

G|----------------------------------|
D|----------------------------------|
A|---------4-4-4-4------------------|   x3
E|-0-0-0-0---------4-4-4-4-5-5-5-5--|

Chorus 1 ["Where is my mind?"]

G|----------------------------------|
D|----------------------------------|
A|---------4-4-4-4------------------|   x3
E|-0-0-0-0---------4-4-4-4-5-5-5-5--|

G|------------------------------------------------------|
D|------------------------------------------------------|
A|------------------------------------------------------| 
E|-0-0-0-0-4-4-4-4-5-5-5-5-5-5-5-5-/9----7-7-7-7-7-7-7-7|

Verse 2 ["I was swimming..."]

G|----------------------------------|
D|----------------------------------|
A|---------4-4-4-4------------------|   x3
E|-0-0-0-0---------4-4-4-4-5-5-5-5--|

Chorus 2 ["Where is my mind?"]

G|----------------------------------|
D|----------------------------------|
A|---------4-4-4-4------------------|   x3
E|-0-0-0-0---------4-4-4-4-5-5-5-5--|

G|------------------------------------------------------|
D|------------------------------------------------------|
A|------------------------------------------------------| 
E|-0-0-0-0-4-4-4-4-5-5-5-5-5-5-5-5-/9----7-7-7-7-7-7-7-7|

Guitar Solo

G|-------------------------------------------------|
D|-------------------------------------------------|
A|-------------------------------------------------| 
E|-7-7-7-7-7-7-7-7-7-7-7-7-7-7-7-7-7-7-7-7-7-7-7-7-|

Verse 1 ["With your feet on the air..."]

G|----------------------------------|
D|----------------------------------|
A|---------4-4-4-4------------------|   x3
E|-0-0-0-0---------4-4-4-4-5-5-5-5--|

Chorus 3 ["Where is my mind?"]

G|----------------------------------|
D|----------------------------------|
A|---------4-4-4-4------------------|   x3
E|-0-0-0-0---------4-4-4-4-5-5-5-5--|

G|------------------------------------------------------|
D|------------------------------------------------------|
A|------------------------------------------------------| 
E|-0-0-0-0-4-4-4-4-5-5-5-5-5-5-5-5-/9----7-7-7-7-7-7-7-7|

Outro

G|----------------------------------|
D|----------------------------------|
A|---------4-4-4-4------------------|   x6
E|-0-0-0-0---------4-4-4-4-5-5-5-5--|

G|----------------------------------|
D|----------------------------------|
A|---------4-4-4-4------------------|   
E|-0-0-0-0---------4-4--------------|
Página 1 / 1

Letras e título
Acordes e artista

resetar configurações
OK